>
 >
Madeline 1

Madeline 1 Guitar Tabs

Tickle Me Pink - Madeline 1 chords, tabs, tablatures, lyrics

Guitar lessons | Add/correct | Request | Top 50 tabs Artists:  A B C D E F G H I J K L M N O P Q R S T U V W X Y Z 0-9

Madeline 1 Guitar Tabs – Tickle Me Pink

CD, Sheet music, Poster

Do you like Madeline 1? Share with your friends now
ChordsChords v2Chords v3TabsTabs v2Tabs v3Ukulele
Band-Tickle Me Pink
Song- Madeline

This is the rythm gutar, I believe.
But rythm and lead in here are basically the same.
This sounds right...




"There's a girl back home I used to know..."

E---------x---------------|
B---------x---------------|
G-9-------x---------------|
D-9--X13 -9--X13-----(X3)-|
A-7----- -9---------------|
E-0-------7---------------|


(Bridge)
"time had taken it's toll"
E---
B---
G---
D-6~
A-6~
E-4~


"she had no place to go"
E-x-
B-x-
G-x-
D-2~
A-2~
E-0~

"they found her body resting by the river.."
E-x------------------x--------------|
B-x------------------x--------------|
G-3------------------x--------------|
D-3--X8--------------5--X5----------|
A-1------------------5--------------|
E-x------------------3--------------|


(chorus)
"Oh,I never said goodbye.I wish I would have tried..."


E-x---------x-----x-----x-----|
B-x---------x-----x-----x-----|
G-x---------x-----4-----x-----|
D-6--X8-----2--X8-4--X8-4--X8-| (X2)
A-6---------2-----2-----4-----|
E-4---------0-----0-----2-----|

"light"
D-9--
A-9--
E-7--

"I remember we would hide behind the trees..."

E--------------x-----------------|
B--------------x-----------------|
G----9---------x-----------------|
D----9--X13----9--X13-----(X3)---|
A----7---------7-----------------|
E-0-0------7-7-7-----------------|

Repeat Bridge & Chorus. (leave out the "light" part)

"Until she saw the..."

     Madeline,     Madeline, you will be remembered...
E-x------x------x------x----------------------|
B-x------x------x------x----------------------|
G-x------x------x-(X4)-x----------------------|
D-x--X4--2------x------2------6--X4-----4--X4-|  (x3)
A-x------2------x------2------6---------4-----|
E-x------0------x------0------4---------2-----|

"the other side..."

E---------x--------|
B---------x--------|
G-9-------8~-------|
D-9--X8---8~-------|
A-7----- -6~-------|
E-0-------x~-------|

(break)

    "dieeee."
E-----x-----|
B-----x-----|
G-----x-----|
D-----5-X8--|
A-----5-----|
E-1-2-3-----|


(Repeat Chorus Chords twice..different lyrics)


"my precious madeline..."

when it hits madeline, switch to..

E-x
B-x
G-x
D-5
A-5
E-3

Last chords:
E---   -x-
B---   -x-
G-9    -x-
D-9 X7 -9~
A-7    -9~
E-0    -7~


That was about right. You've just got to pay attention to the strumming pattern.





Comments


Popular Tickle Me Pink tabs & chords
Strange Life Bass Tabs
Madeline 1 Chords
Madeline 2 Chords
I Can't Breathe Tabs
Madeline Tabs
Madeline 2 Tabs
Madeline Intro Tabs
Strange Life Tabs
The Time Is Wrong Tabs
Typical 1 Tabs


Song lyrics



↑ Back to top | Tablatures and chords are parodies/interpretations of the original songs. You may use it for private study, scholarship, research or language learning purposes only
© 2014 AZChords.com Contact us | Privacy policy | DMCA | Add/correct tabs | Request tabs | Top 50 tabs