» » »

Tickle Me Pink, Madeline Tabs (ver.2)

Artists:  A B C D E F G H I J K L M N O P Q R S T U V W X Y Z # 

Madeline Tabs (ver.2)

Tickle Me Pink Tabs
 Rating:
3.7/5 (6 votes)
Madeline lessons Tabs too difficult? Try these video lessons and learn fast
1
                (Intro)
EADGBE

p=pull off
v=vibrato
h=hammer on

E-----
B-----
G---9~
D---9~
A---7~
E-----

E------------|
B------------|
G---8p-6-----|
D---------4--|  x2
A------------|
E------------|

E---------------------------------------------------------|
B---------------------------------------------------------|
G---------13---------------13------------13-----------8v--|
D-------------14-------14------14-------------14----------|
A------14----------14-------------14--14------------------|
E---------------------------------------------------------|

E---------------|
B---------------|
G--8----8p-6----|
D--8----------4-| x2
A--6------------|
E---------------|

E---------------|
B---------------|
G---9------14v--|
D---9-----------| x2
A---7-----------|
E---------------|

E---------------|
B---------------|
G--8----8p-6----|
D--8----------4-| x2
A--6------------|
E---------------|

E--------------------------|
B--------------------------|
G--------------------------|
D---9--8--8h9p8------------|
A----------------11----11--|v
E--------------------------|
            
Submit corrections

comments powered by Disqus
↑ Back to top | Tickle Me Pink Tabs for Madeline. Lyrics for acoustic guitar and electric guitar. 1 Tablatures and chords are parodies/interpretations of the original songs. You may use it for private study, scholarship, research or language learning purposes only