» » »

Tickle Me Pink, Madeline Tabs (ver.1)

Artists:  A B C D E F G H I J K L M N O P Q R S T U V W X Y Z # 

Madeline Tabs (ver.1)

Tickle Me Pink Tabs
 Rating:
3.4/5 (5 votes)
Madeline lessons Tabs too difficult? Try these video lessons and learn fast
                Hey everybody. There were no good tabs up for this song so I just thought, why not?
Its perfect for the most part. But there are a few parts that might be a little off.




______________________________________________________________________________________


Legend:
#^ - Bend up
#^# - Bend up then return, Bend to required pitch
h - Hammer on
p - Pull off
. - Palm mute
~ - Vibrato


Tuning: Standard E
Key: B



Intro: [0:00]
E|-----------------|-----------------|-----------------|-----------------|
B|-9---9-----99--9-|-----------------|-----------------|-----------------|
G|-9---9--9--99--9-|-9-9-------------|-----8-------8---|-----8-------8---|
D|-9---9--9--99--9-|-9-9-------------|-----9--------9--|-----9--------9--|
A|-7---------------|---7-------------|---------------9-|---------------9\|
E|-----------------|-----------------|-7-7---7-7-7-----|-7-7---7-7-7-----|
                                       . .   . . .       . .   . . .
Verse 1: [0:12]
E|-----------------|-----------------|-----------------|-----------------|
B|-----9-------9---|-----9-----------|--------------h--|--------------h--|
G|---9---9----9-9--|---9---9---8^8---|-----8-------898-|-----8-------898-|
D|-----------9---9-|-----------------|-----9-------9-9-|-----9-------9-9-|
A|-7-------7-------|-7---------------|-----------------|-----------------|
E|-----------------|-----------------|-7-7---7-7-7-----|-7-7---7-7-7-----|
                                       . .   . . .       . .   . . . 
Pre-Chorus: [0:24]
E|-----------------|-----------------|-----------------|-----------------|
B|-9------11^11----|-9------11^11----|--------------h--|-----------------|
G|-9------9--------|-9------9--------|-----8-------898-|-----8-----------|
D|-----------------|-----------------|-----9-------9-9-|-----9-------9---|
A|-----------------|-----------------|-----------------|-----------------|
E|-----------------|-----------------|-7-7---7-7-7-----|-7-7---7-7-7-----|
                                       . .   . . .       . .   . . . 
E|-----------------|-----------------|-----------------|-----------------|
B|-------h-----hp--|-----------------|-----------------|-----------------|
G|-1----34--1-343-1|---1~~~----------|-----------------|-----------------|
D|-----------------|-----------------|-5---------------|-5---5---5-------|
A|-----------------|-----------------|-6-6-6-6-6-6-6-6-|-6-666-666-------|
E|-----------------|-----------------|-3-3-3-3-3-3-3-3-|-3-333-333-------|
                                         . . . . . . .

Chorus: [0:49]
E|-----------------|-----------------|-----------------|-----------------|
B|-----------------|-----------------|-----------------|-----------------|
G|-----------------|-----------------|-4-4-4-4-4-4-4-4-|-----------------|
D|-6-6-6-6-6-6-6-6-|-2-2-2-2-2-2-2-2-|-4-4-4-4-4-4-4-4-|-5-5-5-5-5-5-5-5-|
A|-6-6-6-6-6-6-6-6-|-2-2-2-2-2-2-2-2-|-2-2-2-2-2-2-2-2-|-6-6-6-6-6-6-6-6-|
E|-4-4-4-4-4-4-4-4-|-0-0-0-0-0-0-0-0-|-----------------|-3-3-3-3-3-3-3-3-|
                      \Guitar 1/

                      /Guitar 2\
E|-----------------|-----------------|-----------------|-----------------|
B|-----------------|-----------------|-----------------|-----------------|
G|-4-4-4-4-4-4-4-4-|---------------3-|-4-4-4-4-4-4-4-4-|-----------------|
D|-----------------|-6-6-6-6-6-6-6---|-----------------|-5-5-5-5-5-5-5-5-|
A|-2-2-2-2-2-2-2-2-|---------------1-|-2-2-2-2-2-2-2-2-|-----------------|
E|-----------------|-4-4-4-4-4-4-4---|-----------------|-3-3-3-3-3-3-3-3-|

       [1:01]
E|-----------------|-----------------|-----------------|-----------------|
B|-----------------|-----------------|-----------------|-----------------|
G|-----------------|-----------------|-4-4-4-4-4-4-4-4-|-----------------|
D|-6-6-6-6-6-6-6-6-|-2-2-2-2-2-2-2-2-|-4-4-4-4-4-4-4-4-|-5-5-5-5-5-5-5-5-|
A|-6-6-6-6-6-6-6-6-|-2-2-2-2-2-2-2-2-|-2-2-2-2-2-2-2-2-|-6-6-6-6-6-6-6-6-|
E|-4-4-4-4-4-4-4-4-|-0-0-0-0-0-0-0-0-|-----------------|-3-3-3-3-3-3-3-3-|
                       \Guitar 1/

                       /Guitar 2\
E|-----------------|-----------------|-----------------|-----------------|
B|-----------------|-----------------|-----------------|-----------------|
G|-4-4-4-4-4-4-4---|-----------3-4-6-|-8-8-8-8-8-6-4-6-|-3-3-3-3---------|
D|---------------4-|-6-6-6-6-6-------|-----------------|---------5-5-5-5-|
A|-2-2-2-2-2-2-2---|-----------1-2-4-|-6-6-6-6-6-4-2-4-|-1-1-1-1---------|
E|---------------2-|-4-4-4-4-4-------|-----------------|---------3-3-3-3-|

Post-Chorus: [1:13]
E|-----------------|
B|---9---9---9---9-|
G|---9---9---9---9-|
D|-----------------|
A|-----------------|
E|-----------------|
 
Verse 2: [1:16]
E|-----------------|-----------------|-----------------|-----------------|
B|---9---9---9---9-|---9---9---9-----|--------------p--|--------------p--|
G|---9---9---9---9-|---9---9---9-8^8-|---8---8---8-98-8|---8---8---8-98-8|
D|-----------------|-----------------|---9---9---9-9-9-|---9---9---9---9-|
A|-77-777-777-777-7|-77-777-777------|-----------------|-----------------|
E|-----------------|-----------------|-77-777-777------|-77-777-777------|
   .. ... ... ... .  .. ... ...        .. ... ...        .. ... ...
E|-----------------|-----------------|-----------------|-----------------|
B|---9---9---9-----|---9---9---9-----|--------------p--|--------------p--|
G|---9---9---9-8^8-|---9---9---9-8^8-|---8---8---8-98-8|---8---8---8-98--|
D|-----------------|-----------------|---9---9---9---9-|---9---9---9---9-|
A|-77-777-777------|-77-777-777------|-----------------|----------------9|
E|-----------------|-----------------|-77-777-777------|-77-777-777------|
   .. ... ...        .. ... ...        .. ... ...        .. ... ...
Pre-Chorus: [1:41]
E|-----------------|-----------------|-----------------|-----------------|
B|---------xx--hp--|-----------------|-----------------|-----------------|
G|-4-------xx-343-1|-1---------------|-----------------|-----------------|
D|-6-------xx------|-2---------------|-5---------------|-5---5---5-------|
A|-6---------------|-2---------------|-6-6-6-6-6-6-6-6-|-6-666-666-------|
E|-4---------------|-0---------------|-3-3-3-3-3-3-3-3-|-3-333-333-------|


Chorus: [1:53]
E|-----------------|-----------------|-----------------|-----------------|
B|-----------------|-----------------|-----------------|-----------------|
G|-----------------|-----------------|-4-4-4-4-4-4-4-4-|-----------------|
D|-6-6-6-6-6-6-6-6-|-2-2-2-2-2-2-2-2-|-4-4-4-4-4-4-4-4-|-5-5-5-5-5-5-5-5-|
A|-6-6-6-6-6-6-6-6-|-2-2-2-2-2-2-2-2-|-2-2-2-2-2-2-2-2-|-6-6-6-6-6-6-6-6-|
E|-4-4-4-4-4-4-4-4-|-0-0-0-0-0-0-0-0-|-----------------|-3-3-3-3-3-3-3-3-|
                      \Guitar 1/

                      /Guitar 2\
E|-----------------|-----------------|-----------------|-----------------|
B|-----------------|-----------------|-----------------|-----------------|
G|-4-4-4-4-4-4-4-4-|---------------3-|-4-4-4-4-4-4-4-4-|-----------------|
D|-----------------|-6-6-6-6-6-6-6---|-----------------|-5-5-5-5-5-5-5-5-|
A|-2-2-2-2-2-2-2-2-|---------------1-|-2-2-2-2-2-2-2-2-|-----------------|
E|-----------------|-4-4-4-4-4-4-4---|-----------------|-3-3-3-3-3-3-3-3-|
        [2:05]
E|-----------------|-----------------|-----------------|-----------------|
B|-----------------|-----------------|-----------------|-----------------|
G|-----------------|-----------------|-4-4-4-4-4-4-4-4-|-----------------|
D|-6-6-6-6-6-6-6-6-|-2-2-2-2-2-2-2-2-|-4-4-4-4-4-4-4-4-|-5-5-5-5-5-5-5-5-|
A|-6-6-6-6-6-6-6-6-|-2-2-2-2-2-2-2-2-|-2-2-2-2-2-2-2-2-|-6-6-6-6-6-6-6-6-|
E|-4-4-4-4-4-4-4-4-|-0-0-0-0-0-0-0-0-|-----------------|-3-3-3-3-3-3-3-3-|
                      \Guitar 1/

                      /Guitar 2\
E|-----------------|-----------------|-----------------|-----------------|
B|-----------------|-----------------|-----------------|-----------------|
G|-4-4-4-4-4-4-4---|-----------3-4-6-|-8-8-8-8-8-6-4-6-|-3-3-3-3---------|
D|---------------4-|-6-6-6-6-6-------|-----------------|---------5-5-5-5-|
A|-2-2-2-2-2-2-2---|-----------1-2-4-|-6-6-6-6-6-4-2-4-|-1-1-1-1---------|
E|---------------2-|-4-4-4-4-4-------|-----------------|---------3-3-3-3-|


Bridge: [2:18]
E|------------9----|------------9----|-----------------|
B|------------9----|------------9----|-----------------|
G|-----------11^13-|-----------11^13-|---------4-4-4-4-|
D|-----------------|-----------------|-6-6-6-6-4-4-4-4-|
A|-2-2-2-2---------|-2-2-2-2---------|-6-6-6-6-2-2-2-2-|
E|-0-0-0-0---------|-0-0-0-0---------|-4-4-4-4---------|
   . . . .           . . . .    
E|------------9----|------------9----|-----------------|
B|------------9----|------------9----|-----------------|
G|-----------11^13-|-----------11^13-|-----------------|
D|-----------------|-----------------|-6-6-6-6-2-2-2-2-|
A|-2-2-2-2---------|-2-2-2-2---------|-6-6-6-6-2-2-2-2-|
E|-0-0-0-0---------|-0-0-0-0---------|-4-4-4-4-0-0-0-0-|
   . . . .           . . . .
E|------------9----|------------9----|-----------------|
B|------------9----|------------9----|-----------------|
G|-----------11^13-|-----------11^13-|---------4-4-4-4-|
D|-----------------|-----------------|-6-6-6-6-4-4-4-4-|
A|-2-2-2-2---------|-2-2-2-2---------|-6-6-6-6-2-2-2-2-|
E|-0-0-0-0---------|-0-0-0-0---------|-4-4-4-4---------|
   . . . .           . . . .         -Slowly strum this chord from the top string down.
E|-----------------|-----------------|-4---------------|
B|-----------------|-----------------|-4---------------|
G|-6-6-6-6-6-6-6-6-|-8---------------|-4---------------|
D|-6-6-6-6-6-6-6-6-|-8---------------|-6---------------|
A|-4-4-4-4-4-4-4-4-|-6---------------|-----------------|
E|-----------------|-----------------|-----------------|

E|-----------------|-----------------|
B|-----------------|-----------------|
G|-----------------|-----------------|
D|-------------4-6-|-888888888888888-|
A|-------------2-4-|-666666666666666-|
E|-----------------|-----------------|


Outro: [2:58]
E|-----------------|-----------------|-----------------|-----------------|
B|-----------------|-----------------|-----------------|-----------------|
G|-----------------|-----------------|-4-4-4-4-4-4-4-4-|-----------------|
D|-6-6-6-6-6-6-6-6-|-2-2-2-2-2-2-2-2-|-4-4-4-4-4-4-4-4-|-5-5-5-5-5-5-5-5-|
A|-6-6-6-6-6-6-6-6-|-2-2-2-2-2-2-2-2-|-2-2-2-2-2-2-2-2-|-6-6-6-6-6-6-6-6-|
E|-4-4-4-4-4-4-4-4-|-0-0-0-0-0-0-0-0-|-----------------|-3-3-3-3-3-3-3-3-|
                      \Guitar 1/

E|-----------------|-----------------|-----------------|-----------------|
B|-----------------|-----------------|-----------------|-----------------|
G|-----------------|-----------------|-4-4-4-4-4-4-4-4-|-----------------|
D|-6-6-6-6-6-6-6-6-|-2-2-2-2-2-2-2-2-|-4-4-4-4-4-4-4-4-|-5-5-5-5-5-5-5-5-|
A|-6-6-6-6-6-6-6-6-|-2-2-2-2-2-2-2-2-|-2-2-2-2-2-2-2-2-|-6-6-6-6-6-6-6-6-|
E|-4-4-4-4-4-4-4-4-|-0-0-0-0-0-0-0-0-|-----------------|-3-3-3-3-3-3-3-3-|
                      \Guitar 1/

  This is what Guitar 2 plays during the outro. Its not exact because its kinda hard
  to hear but its pretty damn close.

  You strum this part on queue with the other guitar, but I spaced out the notes to 
  make it easier to read.
E|----------------------------------------|
B|----------------------------------------|
G|-16-16-15-15-13-13-15-15-13-13-15-15-13-|
D|----------------------------------------|
A|-14-14-13-13-11-11-13-13-11-11-13-13-11-|
E|----------------------------------------|

  Guitar 1 ends on this: [3:24]
E|-----------------|-----------------|
B|-----------------|-----------------|
G|-----------------|-----------------|
D|-5---------------|-----------------|
A|-6---------------|-----------------|
E|-3---------------|-----------------|
Guitar 2 ends with this: [3:27]
E|-----------------|-----------------|-----------------|-----------------|
B|-9---9-----99--9-|-------------9---|-----------------|-----------------|
G|-9---9--9--99--9-|-9-9------9--9---|-----------------|-----------------|
D|-9---9--9--99--9-|-9-9------9--9--9|-9---------------|-----------------|
A|-7---------------|---7---77-7--7--7|-9---------------|-----------------|
E|-----------------|-----------------|-7---------------|-----------------|

Well thats the whole song...
            
Submit corrections

comments powered by Disqus
↑ Back to top | Tickle Me Pink Tabs for Madeline. Lyrics for acoustic guitar and electric guitar. Tablatures and chords are parodies/interpretations of the original songs. You may use it for private study, scholarship, research or language learning purposes only