>
 >
Epiphany 2

Epiphany 2 Guitar Tabs

The Word Alive - Epiphany 2 chords, tabs, tablatures, lyrics

Guitar lessons | Add/correct | Request | Top 50 tabs Artists:  A B C D E F G H I J K L M N O P Q R S T U V W X Y Z 0-9

Epiphany 2 Guitar Tabs – The Word Alive

CD, Sheet music, Poster

Do you like Epiphany 2? Share with your friends now
TabsTabs v2Tabs v3
Epiphany
The Word Alive
Fearless Records

Tuning: C G C F A D

My completed tab of Epiphany. Enjoy.
-Logan

Gtr 1 & 2
D---------------------------------------------------|
A---------------------------------------------------|
F---------------------------------------------------|
C-----1---------------------------------------------|
G---5-----------------------------------------------|
C-------3-1-0---------------------------------------|
PM   

D---------------------------------------------------|
A---------------------------------------------------|
F---------------------------------------------------|
C---------------1---------1-------------------------|(x4)
G---0h5p0---1-5---------5---------------------------|
C---------5-------3-1-0-----3-1-0--0-0-0------------|
PM                

D---------------------------------------------------|
A---------------------------------------------------|
F---------------------------------------------------|
C---------------------------------------------------|
G---0h5p0---1-0-------------------------------------|
C---------5---0-------------------------------------|
PM               


              ^
Keyboard/Gtr 1 (starts at the same time as the open C chord) 
D---------------------------------------------------|
A---------------------------------------------------|
F-------------------------4h5h7---------------------|
C-------------5h7h8-5h7h8---------------------------|
G---------------------------------------------------|
C---------------------------------------------------|
PM            ----- ----- -----

Gtr 2
D---------------------------------------------------|
A---------------------------------------------------|
F---------------------------------------------------|
C---------------------------------------------------|(x2)
G---00--0-00000---000-000-000-000-0-00000-----------|
C---00--0-00000---000-000-000-000-0-00000-----------|
PM  -   - ----    --- --- --- --- - ----



Gtr 1
D---------------------------------------------------|
A---600030006000300060003000------------------------|
F---------------------------22222222----------------|
C---------------------------------------------------|(x4)
G---------------------------------------------------|
C---------------------------------------------------|
PM  --------------------------------

Gtr 2
D---------------------------------------------------|
A---------------------------------------------------|
F---------------------------------------------------|
C---------------------------------------------------|(x4)
G---------------------------------------------------|
C---50001000500010005000100011111111----------------|
PM                          --------



Gtr 1 & 2
D---------------------------------------------------|
A---------------------------------------------------|
F---------------------------------------------------|
C---1p0------1p0------1p0---------------------------|(x4)
G-------1p0------1p0------1p0-------0-1-5-----------|
C-----------------------------0-1-5-----------------|
PM



Gtr 1
D---------------------------------------------------|
A---600030006000300060003000------------------------|
F---------------------------22222222----------------|
C---------------------------------------------------|(x4)
G---------------------------------------------------|
C---------------------------------------------------|
PM  --------------------------------

Gtr 2
D---------------------------------------------------|
A---------------------------------------------------|
F---------------------------------------------------|
C--------------------------------------4*-----------|
G---0--0-00000--0-00000--0-00000-0-0-0--------------|
C---0--0-00000--0-00000--0-00000-0-0-0--------------|
PM     - ----   - ----   - ----  -   -

D---------------------------------------------------|
A---------------------------------------------------|
F---------------------------------------------------|
C---------------------------------------------------|
G---0--0-00000--0-00000--0-00000-0-0----------------|
C---0--0-00000--0-00000--0-00000-0-0----------------|
PM     - ----   - ----   - ----  -  

 
                         ^
Gtr 1 (Starts here)      ^
D---------------------------------------------------|
A---------------------------------------------------|
F---------------------14-17-------------------------|
C---------------12-15-------------------------------|
G---------12-15-------------------------------------|
C---12-15-------------------------------------------|
PM 



(Chorus)
Gtr 1
D---------------------------------------------------|
A---------------------------------------------------|
F---7-------15------8-------12----------------------|
C---x-(x16)-x-(x16)-x-(x16)-x-(x16)-----------------|(x2)
G---5-------13------6-------10----------------------|
C---------------------------------------------------|
PM

Gtr 2
D---------------------------------------------------|
A---------------------------------------------------|
F---------------------------------------------------|
C---8-------5-------0-------------------------------|(x2)
G---8-(x16)-5-(x16)-0-(x32)-------------------------|
C---8-------5-------0-------------------------------|
PM      



Gtr 1 & 2
D---------------------------------------------------|
A---------------------------------------------------|
F---------------------------------------------------|
C---------------1---------1-------------------------|(x4)
G---0h5p0---1-5---------5---------------------------|
C---------5-------3-1-0-----3-1-0--0-0-0------------|
PM              




Gtr 1 (fast picking)
D---------------------------------------------------|
A---8-10-11-(x4)-8-10-11----------------------------|
F---------------------------------------------------|
C---------------------------------------------------|(x4)
G---------------------------------------------------|
C---------------------------------------------------|
PM               - -- --

Gtr 2
D---------------------------------------------------|
A---------------------------------------------------|
F---------------------------------------------------|
C---------------------------------------------------|(x2)
G---1111111111111111555555-333-333------------------|
C---1111111111111111555555-333-333------------------|
PM  ------ --- -- - -- -- 



Gtr 1 & 2
D---------------------------------------------------|
A---------------------------------------------------|
F---------------------------------------------------|
C---------------------------------------------------|(x2)
G---1-5-1-5----111-111----1---1----333-333----------|
C-----------0--111-111--5---5---5--333-333----------|
PM            
     
D---------------------------------------------------|
A---------------------------------------------------|
F---------------------------------------------------|
C---------------------------------------------------|(x3)
G-----------------------------------0h13h17---------|
C---000-000-000-000-000-000-0h13h17-----------------|
PM      

D---------------------------------------------------|
A---------------------------------------------------|
F---------------------------10b---------------------|
C------------------------------12b-10b--------------|
G-------------------------------------12b-----------|
C---000-000-000-000-000-000-------------------------|
PM      



Gtr 1
D---------------------------------------------------|
A---------------------------------------------------|
F---------------------------------------------------|
C---------------------------------------------------|
G---0---0-00--000 000-0-----------------------------|
C---0---0-00--000-000-0---0-0h1h5p0h1h5-------------|
PM      -     --- ---     -

Gtr 2
D---------------------------------------------------|
A---------------------------------------------------|
F---------------------------------------------------|
C---------------------------------------------------|
G---0---0-00--000 000-0-----------------------------|
C---0---0-00--000-000-0------------0h1h5p0h1h5------|
PM      -     --- ---  


   
Gtr 1
D---------------------------------------------------|
A---------------------------------------------------|
F---------------------------------------------------|
C---------------------------------------------------|
G---0---0-00--000 000-0-----------------------------|
C---0---0-00--000-000-0---0-0h1h5p0h1h5--0h1h5p0h1h5|
PM      -     --- ---     -
                                        ^
Gtr 2                     v Play in between v
D---------------------------------------------------|
A---------------------------------------------------|
F---------------------------------------------------|
C---------------------------------------------------|
G---0---0-00--000 000-0-----------------------------|
C---0---0-00--000-000-0-----0h1h5p0h1h5--0h1h5p0h1h5|
PM      -     --- ---     



Gtr 1 & 2
D---------------------------------------------------|
A---------------------------------------------------|
F---------------------------------------------------|
C---------------------------------------------------|(x3)
G---------------------------------------------------|
C---0h1h5p0h1h5-0h1h5p0h1h5-0h1h5p0h1h5p0h1h5p0h1h5-|
PM      



Gtr 1
D---------------------------------------------------|
A---600030006000300060003000------------------------|
F---------------------------22222222----------------|
C---------------------------------------------------|(x4)
G---------------------------------------------------|
C---------------------------------------------------|
PM  --------------------------------

Gtr 2
D---------------------------------------------------|
A---------------------------------------------------|
F---------------------------------------------------|
C--------------------------------------4*-----------|
G---0--0-00000--0-00000--0-00000-0-0-0--------------|
C---0--0-00000--0-00000--0-00000-0-0-0--------------|
PM     - ----   - ----   - ----  -   -

D---------------------------------------------------|
A---------------------------------------------------|
F---------------------------------------------------|
C---------------------------------------------------|
G---0--0-00000--0-00000--0-00000-0-0----------------|
C---0--0-00000--0-00000--0-00000-0-0----------------|
PM     - ----   - ----   - ----  -  


                         ^
Gtr 1 (Starts here)      ^
D---------------------------------------------------|
A---------------------------------------------------|
F---------------------14-17-------------------------|
C---------------12-15-------------------------------|
G---------12-15-------------------------------------|
C---12-15-------------------------------------------|
PM  -  -  -  -



(Chorus)
Gtr 1
D---------------------------------------------------|
A---------------------------------------------------|
F---7-------15------8-------12----------------------|
C---x-(x16)-x-(x16)-x-(x16)-x-(x16)-----------------|(x2)
G---5-------13------6-------10----------------------|
C---------------------------------------------------|
PM

Gtr 2
D---------------------------------------------------|
A---------------------------------------------------|
F---------------------------------------------------|
C---8-------5-------0-------------------------------|(x2)
G---8-(x16)-5-(x16)-0-(x32)-------------------------|
C---8-------5-------0-------------------------------|
PM      



No guitar during the bridge but you can play this if you want

Gtr 1 & 2
D---6~--3~--5~--1~----------------------------------|
A---------------------------------------------------|
F---------------------------------------------------|
C---------------------------------------------------|(x2)
G---------------------------------------------------|
C---------------------------------------------------|
PM   



(Chorus again)
Gtr 1
D---------------------------------------------------|
A---------------------------------------------------|
F---7-------15------8-------12----------------------|
C---x-(x16)-x-(x16)-x-(x16)-x-(x16)-----------------|(x2)
G---5-------13------6-------10----------------------|
C---------------------------------------------------|
PM

Gtr 2
D---------------------------------------------------|
A---------------------------------------------------|
F---------------------------------------------------|
C---8-------5-------0-------------------------------|(x2)
G---8-(x16)-5-(x16)-0-(x32)-------------------------|
C---8-------5-------0-------------------------------|
PM  



Gtr 1
D---------------------------------------------------|
A-------------------------6~------------------------|
F---10-10------12-12------7~------------------------|
C---x--x-(x14)-x--x-(x14)-7~------------------------|
G---8--8-------10-10------5~------------------------|
C-------------------------0~------------------------|
PM     -          -

Gtr 2
D---------------------------------------------------|
A---------------------------------------------------|
F---------------------------------------------------|
C---1-1--------5-5--------0~------------------------|
G---1-1-(x14)--5-5-(x14)--0~------------------------|
C---1-1--------5-5--------0~------------------------|
PM    -          -





Comments


Popular The Word Alive tabs & chords
Like Father Like Son Bass Tabs
2012 1 Tabs
2012 2 Tabs
Epiphany 1 Tabs
Life Cycles Tabs
Over The Mountain Tabs
The Devil Inside 2 Tabs
The Hounds Of Anubis Tabs
The Hounds Of Anubis 1 Tabs
The Hounds Of Anubis Intro Tabs


Song lyrics



↑ Back to top | Tablatures and chords are parodies/interpretations of the original songs. You may use it for private study, scholarship, research or language learning purposes only
© 2014 AZChords.com Contact us | Privacy policy | DMCA | Add/correct tabs | Request tabs | Top 50 tabs