>
 >
Epiphany 1

Epiphany 1 Guitar Tabs

The Word Alive - Epiphany 1 chords, tabs, tablatures, lyrics

Guitar lessons | Add/correct | Request | Top 50 tabs Artists:  A B C D E F G H I J K L M N O P Q R S T U V W X Y Z 0-9

Epiphany 1 Guitar Tabs – The Word Alive

CD, Sheet music, Poster

Do you like Epiphany 1? Share with your friends now
TabsTabs v2Tabs v3
Epiphany
The Word Alive
Fearless Records

Q=144 (Not quite sure)
Tuning: C G C F A D

I have a little more in this tab than my Hounds Of Anubis tab (submitted as a 
guest), but I still haven't figured out the lead guitar parts yet.

D---------------------------------------------------|
A---------------------------------------------------|
F---------------------------------------------------|
C-----1---------------------------------------------|
G---5-----------------------------------------------|
C-------3-1-0---------------------------------------|
PM   

D---------------------------------------------------|
A---------------------------------------------------|
F---------------------------------------------------|
C---------------1---------1-------------------------|(x4)
G---0h5p0---1-5---------5---------------------------|
C---------5-------3-1-0-----3-1-0--0-0-0------------|
PM                


D---------------------------------------------------|
A---------------------------------------------------|
F---------------------------------------------------|
C---------------------------------------------------|
G---0h5p0---1-0-------------------------------------|
C---------5---0-------------------------------------|
PM               


D---------------------------------------------------|
A---------------------------------------------------|
F---------------------------------------------------|
C---------------------------------------------------|(x2)
G---00---00000---000-000-000-000-00000--------------|
C---00---00000---000-000-000-000-00000--------------|
PM  -    ----    --- --- --- --- ----

D---------------------------------------------------|
A---------------------------------------------------|
F---------------------------------------------------|
C---------------------------------------------------|(x4)
G---------------------------------------------------|
C---100500100500100500111111------------------------|
PM                    ------


D---------------------------------------------------|
A---------------------------------------------------|
F---------------------------------------------------|
C---3p0------3p0------3p0---------------------------|(x4)
G-------3-1------3-1------3-1--------0h1h5----------|
C-----------------------------0h1h5-----------------|
PM

D---------------------------------------------------|
A---------------------------------------------------|
F---------------------------------------------------|
C-----------------------------------4*--------------|(x2)
G---0---00000---00000---00000-0-0-0-----------------|(No pinch harmonic on second playthrough)
C---0---00000---00000---00000-0-0-0-----------------|
PM      ----    ----    ----  -   -

(Chorus)
D---------------------------------------------------|
A---------------------------------------------------|
F---7-------15------8-------12----------------------|
C---x-(x16)-x-(x16)-x-(x16)-x-(x16)-----------------|(x2)
G---5-------13------6-------10----------------------|
C---------------------------------------------------|
PM

D---------------------------------------------------|
A---------------------------------------------------|
F---------------------------------------------------|
C---------------1---------1-------------------------|(x4)
G---0h5p0---1-5---------5---------------------------|
C---------5-------3-1-0-----3-1-0--0-0-0------------|
PM              

D---------------------------------------------------|
A---------------------------------------------------|
F---------------------------------------------------|
C---------------------------------------------------|(x2)
G---1111111111111111555555-333-333------------------|
C---1111111111111111555555-333-333------------------|
PM  ------ --- -- - -- -- 

D---------------------------------------------------|
A---------------------------------------------------|
F---------------------------------------------------|
C---------------------------------------------------|(x2)
G---1-5-1-5---------------1---1---------------------|
C-----------0--111-111--5---5---5--333-333----------|
PM            
     
D---------------------------------------------------|
A---------------------------------------------------|
F---------------------------------------------------|
C---------------------------------------------------|(x3)
G-----------------------------------0h13h17---------|
C---000-000-000-000-000-000-0h13h17-----------------|
PM      

D---------------------------------------------------|
A---------------------------------------------------|
F---------------------------------------------------|
C---------------------------10b---------------------|
G------------------------------12b-10b--------------|
C---000-000-000-000-000-000-----------12b-----------|
PM      

D---------------------------------------------------|
A---------------------------------------------------|
F---------------------------------------------------|
C---------------------------------------------------|
G---0-----------------0-----------------------------|
C---0---0-00--000-000-0---0-0h1h5-------------------|
PM      -     --- ---     -

D---------------------------------------------------|
A---------------------------------------------------|
F---------------------------------------------------|
C---------------------------------------------------|
G---0-----------------0-----------------------------|
C---0---0-00--000-000-0---0-0h1h5---0h1h5-----------|
PM      -     --- ---     -

D---------------------------------------------------|
A---------------------------------------------------|
F---------------------------------------------------|
C---------------------------------------------------|(x3)
G---------------------------------------------------|
C---0h1h5-0h1h5-0h1h5p0h1h5-0h1h5-------------------|
PM      

D---------------------------------------------------|
A---------------------------------------------------|
F---------------------------------------------------|
C-----------------------------------4*--------------|(x2)
G---0---00000---00000---00000-0-0-0-----------------|(No pinch harmonic on second playthrough)
C---0---00000---00000---00000-0-0-0-----------------|
PM      ----    ----    ----  -   -

(Chorus)
D---------------------------------------------------|
A---------------------------------------------------|
F---7-------15------8-------12----------------------|
C---x-(x16)-x-(x16)-x-(x16)-x-(x16)-----------------|(x2)
G---5-------13------6-------10----------------------|
C---------------------------------------------------|
PM

No guitar during the bridge

(Chorus again)
D---------------------------------------------------|
A---------------------------------------------------|
F---7-------15------8-------12----------------------|
C---x-(x16)-x-(x16)-x-(x16)-x-(x16)-----------------|(x2)
G---5-------13------6-------10----------------------|
C---------------------------------------------------|
PM


D---------------------------------------------------|
A-------------------------6~------------------------|
F---10-10------12-12------7~------------------------|
C---x--x-(x14)-x--x-(x14)-7~------------------------|
G---8--8-------10-10------5~------------------------|
C-------------------------0~------------------------|
PM     -          -





Comments


Popular The Word Alive tabs & chords
2012 Tabs
2012 1 Tabs
2012 2 Tabs
Casanova Rodeo Tabs
Casanova Rodeo 1 Tabs
Like Father Like Son Tabs
The Devil Inside Tabs
The Hounds Of Anubis 3 Tabs
Wishmaster Tabs
You're All I See Tabs


Song lyrics



↑ Back to top | Tablatures and chords are parodies/interpretations of the original songs. You may use it for private study, scholarship, research or language learning purposes only
© 2014 AZChords.com Contact us | Privacy policy | DMCA | Add/correct tabs | Request tabs | Top 50 tabs