» » »

The Word Alive, Epiphany Tabs (ver.1)

Artists:  A B C D E F G H I J K L M N O P Q R S T U V W X Y Z # 

Epiphany Tabs (ver.1)

The Word Alive Tabs
 Rating:
3.7/5 (6 votes)
Epiphany lessons Tabs too difficult? Try these video lessons and learn fast
                [Epiphany]
[Deceiver]
[The Word Alive]

Tuning: Drop C (CGCFAD/Drop D 1 Step Down)

As Requested By: JRohrer14 (several times ;D hehe)

kay. use this as a basis for whats actually going on in the songg :P i went
into as much detail as possible but they CRANK ther mids, n then play
really fast! which really blurrs all there notes together in alota parts :P
i get it, its there tone, n not a bad one, just very difficult to pick
apart! n dont even check there live stuff they like never play it the
same.. :P some parts i have Little faith in, some i just dont kno.. :P i
spent Timee goin over n over n over each part loll n it doesnt help i hav
such low quality speakers.. :P but here, it tabbed the whole thing, n took
what i think was closest, n it should be damn fukn close! :P hahaha so
lemme kno what you think :)

kay here goes.. this is gonna be messy.

----------------------------------------------------------------------------

(The noise in the beginning is Riff 1 in reverse :P should go like this if
you can pull it off with the fade-in n all:

- ------------------------------------------------------------------|
- ------------------------------------------------------------------|
- ------------------------------------------------------------------|
- ------------------------------------------------------------------|
- -1-----5---------6\5-------6\5---1-----5---------6\5-------6\5----|
- ---5-1---1-001/3-----001/3-----00--5-1---1-001/3-----001/3-----00-|

this is where the band starts.. :P

[Riff 1] - [00:05] - [00:16]-------------------------------------------| 8x
- ----------------------------------|----------------------------------|
- ----------------------------------|------(Last Time Played)----------|
- ----------------------------------|----------------------------------|
- ----------------------------------|----------------------------------|
- ----5/6-------5/6---------5-----1-|---5/6-------5/6---------5--------|
- -00-----3\1-00----3\1-001---1-5---|00-----3\1-00----3\1-001---1/12\--|

----------------------------------------------------------------------------

[Riff 2] - [00:16] - [00:27]-----------------------------------------| 2x
- -------------------------------------------------------------------|
- -------------------------------------------------------------------|
- -------------------------------------------------------------------|
- -------------------------------------------------------------------|
- -0-------------0-000---------------0-000-000-000-000-000-00000000--|
- -0-------------0-000-----0000000---0-000-000-000-000-000-00000000--|
PM ..............................    ..............................

----------------------------------------------------------------------------

[Riff 3a] - [00:27] - [00:38]------------------------------------------| 2x
- ---------------------------------------------------------------------|
- -10p9-7-7-9p7-6-6-10p9-7-7-9p7-6-6-10p9-7-7-9p7-6-6------------------|
- ----------------------------------------------------8p7-5-5-7p5-4-4--|
- ---------------------------------------------------------------------|
- ---------------------------------------------------------------------|
- ---------------------------------------------------------------------|
PM      ...     ...      ...     ...      ...     ...     ...     ...

- ----------------------------------------------------11p10-8-8-10p8-7-7-|
- -10p9-7-7-9p7-6-6-10p9-7-7-9p7-6-6-10p9-7-7-9p7-6-6--------------------|
- -----------------------------------------------------------------------|
- -----------------------------------------------------------------------|
- -----------------------------------------------------------------------|
- -----------------------------------------------------------------------|
PM      ...     ...      ...     ...      ...     ...       ...      ...

[Riff 3b] - [00:27] - [00:38]--------| 4x
- -----------------------------------|
- -----------------------------------|
- -----------------------------------|
- -----------------------------------|
- -----------------------------------|
- -4-001-004-001-004-001p0-00000000--|
PM   ..  ..  ..  ..  ..    ........

----------------------------------------------------------------------------

This is one of those parts i really dno about! this is something that could
be played here :P but its probably not even close.. i cant hear it :|

[Riff 4a] - [00:38] - [00:49]-----------------------| 4x
- --------------------------------------------------|
- --------------------------------------------------|
- --------------------------------------------------|
- --------------------------------------------------|
- -------------------------------------------0h5h7--|
- -8p5p0-5p1p0-8p5p0-5p1p0-8p5p0-5p1p0-0h1h5--------|

[Riff 4b] - [00:38] - [00:49]--------------------------| 4x
- -----------------------------------------------------|
- -----------------------------------------------------|
- -----------------------------------------------------|
- -----------------------------------------------------|
- ----------------------------------------------0h5h7--|
- -12p8p0-8p5p0-12p8p0-8p5p0-12p8p0-8p5p0-0h1h5--------|

----------------------------------------------------------------------------

[Riff 5a] - [00:49] - [01:00]
- ------------------------------------------------------------------|
- ------------------------------------------------------------------|
- ------------------------------------------------------------------|
- -------------------------------------------------------------[3b]-|
- -0---------00000000--------000000----------000000----0-----0------|
- -0---------00000000--------0000000---------0000000---0-0---0------|
PM ................................          ......    .     .

- ------------------------------------------------------------------|
- ------------------------------------------------------------------|
- ------------------------------------------------------------------|
- ------------------------------------------------------------------|
- -0---------00000000--------000000----------000000----0------------|
- -0---------00000000--------0000000---------0000000---0-0----------|
PM ................................          ......    .

[Riff 5b] - [00:49] - [01:00]
- --------------------------------------------------------------------------|
- -------------------12-0-0-0-15-0-0-0-14-0-0-0-15-0-0-0--------------------|
- -12-0-0-0-15-0-0-0-------------------------------------15-0-0-0-15-0-17-0-|
- --------------------------------------------------------------------------|
- --------------------------------------------------------------------------|
- --------------------------------------------------------------------------|
PM ........................................................................

- -------------------------------------------------------------------------|
- -------------------12-0-0-0-15-0-0-0-14-0-0-0-15-0-0-0-------------------|
- -12-0-0-0-15-0-0-0-------------------------------------15-0-0-0-15-0-0-0-|
- -------------------------------------------------------------------------|
- -------------------------------------------------------------------------|
- -------------------------------------------------------------------------|
PM .......................................................................

- --------------------------------------------------------------------------|
- -------------------12-0-0-0-15-0-0-0-14-0-0-0-15-0-0-0--------------------|
- -12-0-0-0-15-0-0-0-------------------------------------15-0-0-0-15-0-17-0-|
- --------------------------------------------------------------------------|
- --------------------------------------------------------------------------|
- --------------------------------------------------------------------------|
PM ........................................................................

- -------------------------------------------------5/8-|
- -------------------12-0-0-0-15-0-0-0-----------6-----|
- -12-0-0-0-15-0-0-0-------------------------5h7-------|
- -----------------------------------------7-----------|
- -------------------------------------5h8-------------|
- -----------------------------------------------------|
PM ...................................

----------------------------------------------------------------------------

[Riff 6] - [01:00] - [01:22]

Heres another part im just completely unsure of! in my opinion he just
strums this chord the entire chorus :P hahaha:

- ---------|
- ---------|
- -7-------|
- -x-------|
- -5(128x)-|
- ---------|

but i think thats probably not the case lolll this i what i can kinda hear
in the background i thinkk:

- -------------------------------|
- -------------------------------|
- -7------15------10-----14------|
- -x------x-------x------x-------| Played Twice
- -5(16x)-13(16x)-8(16x)-12(16x)-|
- -------------------------------|

and here are the powerchords that would be played if they existed :P i dont
think theyre actually there.. but i dno. theres too much going onnn:

- -----------------------------|
- -----------------------------|
- -----------------------------|
- -8------5------0------3------| Played Twice
- -8------5------0------3------|
- -8(16x)-5(16x)-0(16x)-3(16x)-|

yeaa. with a mix of the bass n the synth im sure all of thats in there
somewhere :P not sure what the guitar does.. its mids n soft tone just
kinda mix into everything hahah but i definately hear some, if not, all of
hat :P

----------------------------------------------------------------------------

[Riff 1] - [01:22] - [01:33] - 8x

----------------------------------------------------------------------------

[Riff 7a] - [01:33] - [01:44]
- -----------------------------------------------------------------|
- -----------------------------------------------------------------|
- -----------------------------------------------------------------|
- -----------------------------------------------------------------|
- -----5-------5-------5-----5---5-----1-------1-----5-5-5---5-5-5-|
- -1-1-1-1-1-1-1-1-1-1-1-1-1-1-1-1-5-5-5-5-5-5-5-0-0-3-3-3---3-3-3-|
PM ...   .....   .....   ...   .   ...   .....   ...

- -----------------------------------------------------------------|
- -----------------------------------------------------------------|
- -----------------------------------------------------------------|
- -----------------------------------------------------------------|
- -----5-------5-------5-----5---5-----1-------1-----5-5-5---5-5-5-|
- -1-1-1-1-1-1-1-1-1-1-1-1-1-1-1-1-5-5-5-5-5-5-5-0---3-3-3---3-3-3-|
PM ...   .....   .....   ...   .   ...   .....   .

[Riff 7b] - [01:33] - [01:44] - 2x (with Echo r Delay r sumthin)
- ---------10----10--------10----10--------10----10--------10----10-|
- -----8-----8---------8-----8---------8-----8---------8-----8------|
- -10----10----10--10----10----10--10----10----10--10----10----10---|
- ------------------------------------------------------------------|
- ------------------------------------------------------------------|
- ------------------------------------------------------------------|
PM ................................................................

- ---------10----10--------10----10----------------|
- -----8-----8---------8-----8---------------------|
- -10----10----10--10----10----10----101010-101010-|
- -----------------------------------x-x-x---x-x-x-|
- -----------------------------------8-8-8---8-8-8-|
- -------------------------------------------------|
PM ................................

[Riff 8a] - [01:44] - [01:55]--------------------------------------------| 2x
- -----------------------------------------------------------------------|
- -----------------------------------------------------------------------|
- -----------------------------------------------------------------------|
- -----------------------------------------------------------------------|
- ------5---5------------5--------5--------1---1---------5-5-5------5----|
- ---0h1--1-----1-----0h1--1---0h1--1---0h5--5-----5-----3-3-3---0h3--3--|

[Riff 8b] - [01:44] - [01:55]
- -------------------13----/15\-13----------13--------------------|
- ---------13--15-------------------15----------15----13------13b-|
- -12-------------------------------------------------------------|
- ----------------------------------------------------------------|
- ----------------------------------------------------------------|
- ----------------------------------------------------------------|
AP ..............................................................

- -------------------13----/15\-13----------13--------------------|
- ---------13--15-------------------15----------15----------13----|
- -12-------------------------------------------------------------|
- ----------------------------------------------------------------|
- ----------------------------------------------------------------|
- ----------------------------------------------------------------|
AP ..............................................................

----------------------------------------------------------------------------

[Riff 4a + b] - [01:55] - [02:04] - 3.5x

[Riff 9a] - [02:04] - [02:06]
- ---------------------------------|
- -5h6p5h6-------------------------|
- ---------6h7p6h7-----------------|
- -----------------7h8p7-----------|
- -----------------------8-7h8p7---|
- -------------------------------8-|

[Riff 9b] - [02:04] - [02:06]
- -----------------------------------------|
- -8h10p8h10-------------------------------|
- -----------9h10p9h10---------------------|
- ---------------------8h10p8--------------|
- ----------------------------10-8h10p8----|
- --------------------------------------10-|

----------------------------------------------------------------------------

ill explain the hammer-ons at the end for those that get confused :P they
get slightly technical if you listen close, its not just the same thing
over n over! n its tricky to hear thru the double-kick :P

[Riff 10, Guitar 1 & 2] - [02:06] - [02:19]
- -----------------------------------------------------------------------|
- -----------------------------------------------------------------------|
- -----------------------------------------------------------------------|
- -0-------------------------------0-------------------------------------|
- -0-------------0-000-----000-000-0-------------0-----------------------|
- -0-------------0-000-----111-111-0-------------0-1-4p1-0---------------|
PM               .................               .
-
- -----------------------------------------------------------------------|
- -----------------------------------------------------------------------|
- -----------------------------------------------------------------------|
- -0-------------------------------0-------------------------------------|
- -0-------------0-000-----000-000-0-------------0-----------------------|
- -0-------------0-000-----111-111-0-------------0-----------1h4p1h4-0---|
PM               .................               .


- -----------------------------------------------------------------------|
- -----------------------------------------------------------------------|
- -----------------------------------------------------------------------|
- -0-------------------------------0-------------------------------------|
- -0-------------0-000-----000-000-0-------------0-----------------------|
- -0-------------0-000-----111-111-0-------------0-1-4p1-0---------------|
PM               .................               .
-
- -----------------------------------------------------------------------|
- -----------------------------------------------------------------------|
- -----------------------------------------------------------------------|
- -0-------------------------------0-------------------------------------|
- -0-------------0-000-----000-000-0-------------0-----------------------|
- -0-------------0-000-----111-111-0-------------0-----------1h4p1h4-0---|
PM               .................               .


- ---------------------|
- ---------------------|
- ---------------------|
- ---------------------|
- ---------------------|
- -1-4p1-0-------------|
-
- ---------------------|
- ---------------------|
- ---------------------|
- ---------------------|
- ---------------------|
- -----------1h4p1h4-0-|

[Riff 11] - [02:19] - [02:27]-------------------| 3x
- ----------------------------------------------|
- ----------------------------------------------|
- ----------------------------------------------|
- ----------------------------------------------|
- ----------------------------------------------|
- -1-4p1-0---1h4p1h4-0---1h4p1-1h4p1-1h4p1-0----|

okay here, theres three different variations of his hammer-on, all slighty
different, but taking up the same amount of notes :P ill note them how i
wrote them, and then just the notes and frets with each (-) being one
sixteenth note, for those of you that can understand that :P its not hard
even if you cant lol:

- ----------     -----------------------| the first note being the longest and the rest
- ----------     -------- just being 16-|th note pull-offs
- ----------     -----------------------|
- ---------- OR  -----------------------|
- ----------     -----------------------|
- -1-4ph1-0-     -1-410-----------------|

- -----------    ---------| the first four notes being really quick
- -----------    ---------| hammer-on and pull-offs and ending with
- -----------    ---------| the open note
- ----------- OR ---------|
- -----------    ---------|
- -1h4p1h4-0-    -14140---|

- ---------      ---------| this is your standard hammer-on and pull-off
- ---------      ---------| first two notes quick then hold the last one
- ---------      ---------| and then the open at the end
- --------- OR   ---------|
- ---------      ---------|
- -1h4p1-0-      -141-0---|

refer to my gp, if its accepted, for a complete explanation :P

----------------------------------------------------------------------------

[Riff 12] - [02:27] - [02:38]
- ------------------------------------------------------------------|
- ------------------------------------------------------------------|
- ------------------------------------------------------------------|
- -------------------------------------------------------------[3b]-|
- -0---------00000000--------000000----------000000----0-----0------|
- -0---------00000000--------0000000---------0000000---0-0---0------|
PM ................................          ......    .     .

- ------------------------------------------------------------------|
- ------------------------------------------------------------------|
- ------------------------------------------------------------------|
- ------------------------------------------------------------------|
- -0---------00000000--------000000----------000000----0-----0------|
- -0---------00000000--------0000000---------0000000---0-0---0-0-0--|
PM ................................          ......    .     .

[Riff 5b] - [02:27] - [02:38]

----------------------------------------------------------------------------

[Riff 6] - [02:38] - [03:44] - 2x

[Riff 13a, Guitar 1 & 2] - [03:44] - [03:49]
- --------------------------------------------------------------------|
- --------------------------------------------------------------------|
- -7-------------------------------7-------------------------------7~-|
- -x-------------------------------x-------------------------------x--|
- -5---8-8-8-8-8-8-8-8-8-8-8-8-7-7-5---5-5-5-5-5-5-5-5-5-5-5-5-0-0-5--|
- -----8-8-8-8-8-8-8-8-8-8-8-8-7-7-----5-5-5-5-5-5-5-5-5-5-5-5-0-0----|
PM     ...........................     ...........................
-
- --------------------------------------------------------------------|
- -----------------------------------------------------------------5~-|
- -----------------------------------------------------------------7~-|
- -8-------------------------------5-------------------------------0~-|
- -8---8-8-8-8-8-8-8-8-8-8-8-8-7-7-5---5-5-5-5-5-5-5-5-5-5-5-5-0-0-0~-|
- -8---8-8-8-8-8-8-8-8-8-8-8-8-7-7-5---5-5-5-5-5-5-5-5-5-5-5-5-0-0-0~-|
PM     ...........................     ...........................

[Riff 13b] - [03:44] - [03:49]
- ----------------------------|
- --------------------11--10--|
- -12---------10--------------|
- --------12------------------|
- ----------------------------|
- ----------------------------|

----------------------------------------------------------------------------

This is actually the riff from The Wretched, it starts in this song but
they're at two different tempos and theres a gradual reduction in timing,
so i cant quite get home many notes there are :P but you can figure it out

[Riff 14] - [03:49] - [04:02]
- -----------------------------------------------------------------|
- -1010101010101010101010101010101010101010101010106-6-6-6-8-8-8-8-|
- -7-7-7-7-7-7-7-7-7-7-7-7-7-7-7-7-7-7-7-7-7-7-7-7-7-7-7-7-6-6-6-6-|
- -0-0-0-0-0-0-0-0-0-0-0-0-0-0-0-0-0-0-0-0-0-0-0-0-0-0-0-0-0-0-0-0-|
- -----------------------------------------------------------------|
- -----------------------------------------------------------------|

kay now that ive written like, an essay.. yea. take it or leave it :P ive
been Endlessly re-writting this and my gp as i go, even as i was writting
this, and even afterwards! ive given the best of my options :P no doubt,
it'll change ahaha but it kills the other tabs up atm i think :/ and theres
some anxious people thatr pestering me for it ;)

----------------------------------------------------------------------------

[Symbols]

PM... Palm Mute notes with (...) under them
/     Slide Up
\     Slide Down
h     Hammer On
p     Pull Off
[ ]   Pinch Harmonic
( x)  Play x amount of times
~     Let Ring/Vibrato
AP... Alternate Pick notes with (...) under them
x     Dead Note
b     Bend

:)
            
Submit corrections

comments powered by Disqus
↑ Back to top | The Word Alive Tabs for Epiphany. Lyrics for acoustic guitar and electric guitar. Tablatures and chords are parodies/interpretations of the original songs. You may use it for private study, scholarship, research or language learning purposes only