» » »

The View, Superstar Tradesman Tabs (ver.3)

Artists:  A B C D E F G H I J K L M N O P Q R S T U V W X Y Z # 

Superstar Tradesman Tabs (ver.3)

The View Tabs
 Rating:
4/5 (4 votes)
Superstar Tradesman lessons Tabs too difficult? Try these video lessons and learn fast
1
                (Second Guitar)

Intro

|---12------------12----------------12---------12--------12----|
|-----13-------13----13-------x3------13---------13------13----|
|-------12--14----------14--------------12---------12----12----|
|--------------------------------------------------------------|
|--------------------------------------------------------------|
|--------------------------------------------------------------|


then the rest of the song is either this or the barre chords. Just listen to the song 
in different verses its different strumming.

|-12------12-------8--------12-------------|
|-13--x8--13--x8--10--x8----13--x8---------|
|-12------14------10--------12-------------|
|------------------------------------------|
|------------------------------------------|
|------------------------------------------|
|------------------------------------------|
******************************************
Edit                                     *
                                         *
I think that the barre chords played are *
                                         *
|-8------5------1------8------|          *
|-8--x6--5--x6--1--x6--8--x6--|          *
|-9------5------2------9------|          *
|-10-----7------2------10-----|          *
|-10-----7------3------10-----|          *
|-8------5------1------8------|          *
                                         *
******************************************

(First Guitar)


Chords:
C/G = 332010
Am = x02210
Fmaj7 = x33210
G = 320033


intro:
C/G Am x4

C/G Am Fmaj7 C/G x2

Verse 1:
C/G       Am         Fmaj7    C/G
Superstar Tradesman, Stand at the bar,
C/G       Am      Fmaj7   C/G
Get a trade son, You will go far.


C/G           G         C/G            G
You’ll have a house in the Ferry,And a new guitar,
C/G              Am
That’s never been played before,
Fmaj7    C/G
And it never will,
C/G          Am
Its never been played before,
Fmaj7      C/G
And it never will.


Am                 G
The weather is sunny,
Am                 G
You’re locked inside,
Am                  G
The weather is sunny oh yes, I’ve tried and I’ve tried,
C/G         Am       Fmaj7    C/G
To keep me saaaane, to keep me sane,
C/G         Am       Fmaj7    C/G
To keep me saaaane, to keep me sane.

I don’t want money, [repeat chords]
I want happiness,
I don’t want cash and no, I quite like memories,
To keep us on track, Will never look back,
Keep us on track, Lets never look back.


Fmaj7          Am      Fmaj7    Am
Ha, what would you do, If I asked you,
Fmaj7          Am      Fmaj7   Am
What would you do, If I asked you,
C/G         Am     Fmaj7      C/G
To sail awaaaay, To see some sights,
Am           Fmaj7      C/G
Sail awaaaay with me, To see some sights,


Superstar Tradesman, [Repeat from start]
Stand at the bar,
Get a trade son,
You will go far.

You’ll have a house in the Ferry,
And a new guitar,
That’s never been played before,
And it never will,
Its never been played before,
And it never will.

Im pretty sure thats totally right : )
            
Submit corrections

comments powered by Disqus
↑ Back to top | The View Tabs for Superstar Tradesman. Lyrics for acoustic guitar and electric guitar. 1 Tablatures and chords are parodies/interpretations of the original songs. You may use it for private study, scholarship, research or language learning purposes only