» » »

Superstar Tradesman Bass tabs (ver.1)

Artists:  A B C D E F G H I J K L M N O P Q R S T U V W X Y Z # 

Superstar Tradesman Bass tabs (ver.1)

The View
Rating:
0/5 (0 votes)

Hard to play? Try these video lessons and learn fast.
                This is my first tab at the age of 15
tabTabbed By :Binglis
Tuning:standard

superstar tradesman

G---------------------------------------------|
D---------------------------------------------|
A----------------------------33333333---------|        3times
E-55555555-11111111-33333333------------------|

G-------------------------------------|
D-------------------------------------|
A----------------------------333333---|
E-55555555-11111111-33333333-------33-|

G------------------------------------|
D------------------------------------|
A---4-8-5-7----2-5-3-4---------------|        2times
E-5----------3-----------------------|

G-------------------------------------|
D-------------------------------------|
A----------------------------33333333-|
E-55555555-11111111-33333333----------|

G-------------------------------------|
D-------------------------------------|
A----------------------------333333---|
E-55555555-11111111-33333333-------33-|

G------------------------------------|
D------------------------------------|
A------------------------------------|       4times
E-55555555--33333333-----------------|

G-------------------------------------|
D-------------------------------------|
A----------------------------33333333-|
E-55555555-11111111-33333333----------|

G-------------------------------------|
D-------------------------------------|
A----------------------------333333---|
E-55555555-11111111-33333333-------33-|

G------------------------------------|
D------------------------------------|
A------------------------------------|       4times
E-55555555--33333333-----------------|

G-------------------------------------|
D-------------------------------------|
A----------------------------33333333-|
E-55555555-11111111-33333333----------|

G-------------------------------------|
D-------------------------------------|
A----------------------------333333---|
E-55555555-11111111-33333333-------33-|

G------------------------------------|
D------------------------------------|
A------------------------------------|
E-55555555-11111111------------------|

G------------------------------------|
D------------------------------------|
A------------------------------------|        4times
E-3-33-33---1-11-11------------------|

G-------------------------------------|
D-------------------------------------|
A----------------------------33333333-|
E-55555555-11111111-33333333----------|

G-------------------------------------|
D-------------------------------------|
A----------------------------333333---|
E-55555555-11111111-33333333-------33-|

G-------------------------------------|
D-------------------------------------|
A----------------------------33333333-|
E-55555555-11111111-33333333----------|

G-------------------------------------|
D-------------------------------------|
A----------------------------333333---|
E-55555555-11111111-33333333-------33-|

G------------------------------------|
D------------------------------------|
A----------------------------3-33-33-|          2times
E-5-55-55-1-11-11-3-33-33------------|


G------------------------------------|
D------------------------------------|
A---4-8-5-7----2-5-3-4-3-------------|
E-5----------3-----------3-----------|


G------------------------------------------------|
D------------------------------------------------|
A----------------------------33333333------------|           4times
E-55555555-11111111-33333333---------------------|

G------------------------------------|
D------------------------------------|
A----------------------------3-------|
E-5--------1--------3----------------|
            
Hard to play? Try these video lessons and learn fast. | Correct




comments powered by Disqus
↑ Back to top | Tablatures and chords are parodies/interpretations of the original songs. You may use it for private study, scholarship, research or language learning purposes only