» » »

Superstar Tradesman Tabs (ver.2)

Artists:  A B C D E F G H I J K L M N O P Q R S T U V W X Y Z # 

Superstar Tradesman Tabs (ver.2)

The View
Rating:
0/5 (0 votes)

Hard to play? Try these video lessons and learn fast.
                (Intro)
------------------------------------------------------------
           The View - Superstar Tradesman (Intro)
------------------------------------------------------------

The View are a new band to Indie/Rock. One of my favourites.
I hope you enjoy. Any mistakes please comment. Thanks. Alun.

(Intro) Part A

Guitar 1:
E|--12--------------12--------------|--12----12--------12--|
B|------13--------13--13--------x3--|----13----13------13--|
G|----------12--14------14-12-------|------12----12----14--|
D|----------------------------------|----------------------|
A|----------------------------------|----------------------|
E|----------------------------------|----------------------|

Guitar 2:
E|----------------------------------|----------------------|
B|----------------------------------|----------------------|
G|--5-------------------------------|--5-------------------|
D|--5--x8-------7---------------x3--|--5--x8-----------7---|
A|--3-----------7--x8---------------|--3---------------7---|
E|--------------5-------------------|------------------5---|

(Intro) Part B 

Guitar 1:
E|--12------12------8-------12------|
B|--13--x8--13--x8--10--x8--13--x8--|
G|--12------14------10------12------| x2
D|----------------------------------|
A|----------------------------------|
E|----------------------------------|

Guitar 2:
E|----------------------------------|
B|----------------------------------|
G|--5-----------------------5-------|
D|--5--x8---7-------3-------5--x8---| x2
A|--3-------7--x8---3--x8---3-------|
E|----------5-------1---------------|
            
Hard to play? Try these video lessons and learn fast. | Correct




comments powered by Disqus
↑ Back to top | Tablatures and chords are parodies/interpretations of the original songs. You may use it for private study, scholarship, research or language learning purposes only