» » »

Same Jeans Tabs

Artists:  A B C D E F G H I J K L M N O P Q R S T U V W X Y Z # 

Same Jeans Tabs

(ver. 1)
The View Tabs
 Rating:
4/5 (18 votes)
    Same Jeans lessons Tabs too difficult? Try these video lessons and learn fast
                -------------------------------------------------------------------------------
-------------------------------------------------------------------------------

Tuning: EADGBe

I noticed some lack of detail for the solo on this song 
so i decided to write this tab. It's about 99% 
correct I think but feel correct if I messed up. Hope you enjoy :)

e|---------------------------------------------------------------------------|
B|---------------------------------------------------------------------------|
G|----5--5--8---5--7b8---7--5--3h5p3---5--5--8---5--7b8~---5--5--8---5--7b8--|
D|---------------------------------------------------------------------------|
A|---------------------------------------------------------------------------|
E|---------------------------------------------------------------------------|

e|---------------------------6----6----6----6--------------------------------|
B|-----------6--6b7--pb7---pb7--pb7--pb7--pb7r6---4h6p4------4h6p4-----------|
G|----5--8-----------------------------------------------5-------------------|
D|---------------------------------------------------------------------------|
A|---------------------------------------------------------------------------|
E|---------------------------------------------------------------------------|

e|---------------------------------------------------------------------------|
B|----<6b8r6>---4h6p4------------4---6b8r6---4h6p4------4---6----------------|
G|----------------------5--3h5----------------------5------------------------|
D|---------------------------------------------------------------------------|
A|---------------------------------------------------------------------------|
E|---------------------------------------------------------------------------|

e|-----7--7--7--7--7--7--7--7------------------------------------------------|
B|----/8--8--8--8--8--8--8--8-----/12--12--12--12--12------------------------|
G|---------------------------------------------------------------------------|
D|---------------------------------------------------------------------------|
A|---------------------------------------------------------------------------|
E|---------------------------------------------------------------------------|
And back into the verse after this.


************************************
| < > Pinch harmonic
| /   slide up
| \   slide down
| h   hammer-on
| p   pull-off
| ~   vibrato
| +   harmonic
| x   Mute note
| b   Bend
| pb  Pre-bend
| br  Bend release
| pbr Pre-bend release
| brb Bend release bend

************************************
            
Submit corrections

↑ Back to top | The View Tabs for Same Jeans. Lyrics for acoustic guitar and electric guitar. Tablatures and chords are parodies/interpretations of the original songs. You may use it for private study, scholarship, research or language learning purposes only