>
 >
Same Jeans

Same Jeans Guitar Tabs

The View - Same Jeans chords, tabs, tablatures, lyrics

Guitar lessons | Add/correct | Request | Top 50 tabs Artists:  A B C D E F G H I J K L M N O P Q R S T U V W X Y Z 0-9

Same Jeans Guitar Tabs – The View

CD, Sheet music, Poster

Do you like Same Jeans? Share with your friends now
Bass TabsBass Tabs v2ChordsChords v2Chords v3TabsTabs v2Tabs v3Tabs v4Tabs v5UkuleleUkulele v2
-------------------------------------------------------------------------------
-------------------------------------------------------------------------------
Solo tab by: Scott Blythe
Tuning: Standard

Another brilliant song by a top class band - v easy to play too

Verse:

           C          F      G         C
Iv had the same jeans on for four days now
          C       F            G             C
Iím gonna go to a disco in the middle of the town
     C               F      G        C etc
Everybodyís dressing up Iím dressing down

Lifeís one big circle, it does end
When it ends will you still be my friend?
Iím not making a fool of myself
I sed, Iím not making a fool of myself

Chorus:

    C                    F       C  F
So, when you look in the mirror
  C                F                G                F#
Reflecting back at you someone that you donít knoooow
C          F              C           F
Ooo thatís just made your head spin around
   C             F
So get your self together, yeah
         G
Get your feet back on the gro-o-o-o-o-ound

I had the same jeans on for four days now
Iím gonna go to a disco in the middle of the town
Everybodyís dressing up Iím dressing down

I take my hat of to the busker man
For drowning his sorrows n singing his songs
Not everything has worked out to plan
But believe heís smiling as long as he can

So, when you look in the mirror
Reflecting back at you someone that you donít knoooow
Ooo thatís just made your head spin around
So get your self together, yeah
Get your feet back on the gro-o-o-o-o-ound

Guitar Solo (played over chorus chords)


e----------------------------------------|
b----------------------------------------|       x2
g----------8------8----------------------|
d--10--10-----10-----10--8---10----------|

e----------------------------------------------------------|
b----------------------------------------------11-11-11-11-|
g----------8------8-------8---10--10b12-12-12-12-12-12-12--|
d--10--10-----10-----10------------------------------------|

e------------------------------|
b------------------------------|
g-10b12-10-8h-10-8-----8--10---|         x3
d-------------------10---------|

e----------------------------------------------------|
b--------------------------11-13-13-13-13-13-13-13---|
g-12-12-12-12-12-12-12-12----------------------------|
d----------------------------------------------------|

I had the same jeans on for four days now
Iím gonna go to a disco in the middle of the town
Everybodyís dressing up Iím dressing down

My minds not prefect but itís sincere
Youíd be amazed at what you can achieve in a year
Say you tried so hard, but your hearts on a switch
And I know you tried so hard but your hearts on a switch

So, when you look in the mirror
Reflecting back at you someone that you donít knoooow
Ooo thatís just made your head spin around
So get your self together, yeah
Get your feet back on the gro-o-o-o-o-ound

Last few verses just miss out the G

C                 F
Same jeans on for four days now
C                           F
Everybodyís dressing up Iím dressing down
C                        F
Iím not making a fool of myself
    C              F
Now belief me baby I can tell





Comments


Popular The View tabs & chords
Superstar Tradesman Bass Tabs
Don Chords
Berties Bubbly At The Bus Stop Tabs
Don 1 Tabs
Dont Tell Me Intro Tabs
Double Yellow Lines Tabs
Give Back The Sun Intro Tabs
Same Jeans 1 Tabs
5 Rebeccas Ukulele
Mr Men Book Ukulele


Song lyrics



↑ Back to top | Tablatures and chords are parodies/interpretations of the original songs. You may use it for private study, scholarship, research or language learning purposes only
© 2014 AZChords.com Contact us | Privacy policy | DMCA | Add/correct tabs | Request tabs | Top 50 tabs