» » »

The View, Same Jeans Bass tabs (ver.2)

Artists:  A B C D E F G H I J K L M N O P Q R S T U V W X Y Z # 

Same Jeans Bass tabs (ver.2)

The View Tabs
 Rating:
4.2/5 (5 votes)
Same Jeans lessons Tabs too difficult? Try these video lessons and learn fast
1
                Noticed no one else tabbed this so decided i would! Very easy to play!


Guitar intro

Bass kicks in at 00:24

g|------------------------------|
d|--------3-3-------------------| X3
a|-3-3--------------3---3-3-3---|
E|------------3-3-3-------------|

At 00:34

g|----------------------------------|
d|--------3-3-----------------------|
a|-3-3--------------3---3-3-3-------|
E|------------3-3-3--------------3\-|

Chorus at 00:38

g|---------------------------------------------------------------|
d|-------3-333-------3-333--------3-333--------------------------| X2
a|-3-333-------3-333--------3-333--------------------------------|
E|---------------------------------------3-3-3-3-3-3-3-3-3-3-3-3-|

Repeat until 00:55

g|------------------------------|
d|--------3-3-------------------| X7
a|-3-3--------------3---3-3-3---|
E|------------3-3-3-------------|

g|----------------------------------|
d|--------3-3-----------------------|
a|-3-3--------------3---3-3-3-------|
E|------------3-3-3--------------3\-|


(i think he may do a slide up the neck the 4th time he does the verse!)

Chorus at 1:24

g|---------------------------------------------------------------|
d|-------3-333-------3-333--------3-333--------------------------| X2
a|-3-333-------3-333--------3-333--------------------------------|
E|---------------------------------------3-3-3-3-3-3-3-3-3-3-3-3-|

For the guitar solo you just repeat the chorus!

g|---------------------------------------------------------------|
d|-------3-333-------3-333--------3-333--------------------------| X2
a|-3-333-------3-333--------3-333--------------------------------|
E|---------------------------------------3-3-3-3-3-3-3-3-3-3-3-3-|

Verse at 1:58 (only guitar)

Bass kicks back in at 2:13

g|-----------------------------|
d|-------3-3-------------------| X3
a|-3-3--------------3---3-3-3--|
E|------------3-3-3------------|

g|----------------------------------|
d|--------3-3-----------------------|
a|-3-3--------------3---3-3-3-------|
E|------------3-3-3--------------3\-|

Chorus at 2:28

g|---------------------------------------------------------------|
d|-------3-333-------3-333--------3-333--------------------------| X4
a|-3-333-------3-333--------3-333--------------------------------|
E|---------------------------------------3-3-3-3-3-3-3-3-3-3-3-3-|

Mad part bass at 3:14

g|---------------------------------------------------|
d|---------333333----------333333-----------333333---| X4
a|-333333----------333333-----------333333-----------|
E|---------------------------------------------------|
            
Submit corrections

comments powered by Disqus
↑ Back to top | The View Bass for Same Jeans. Lyrics for acoustic guitar and electric guitar. 1 Tablatures and chords are parodies/interpretations of the original songs. You may use it for private study, scholarship, research or language learning purposes only