>
 >
High Regard

High Regard Guitar Tabs

The Story So Far - High Regard chords, tabs, tablatures, lyrics

Guitar lessons | Add/correct | Request | Top 50 tabs Artists:  A B C D E F G H I J K L M N O P Q R S T U V W X Y Z 0-9

High Regard Guitar Tabs – The Story So Far

CD, Sheet music, Poster

Do you like High Regard? Share with your friends now
Bass TabsDrum TabsTabs
Track: High Regard
Guitar 1: Rhythm, Standard (EADGBe)
Guitar 2: Lead, Standard (EADGBe)

Guitar 1
Intro
E|--------------------------------|--------------------------------|
B|--------------------------------|--------------------------------|
G|--------------------------------|--------------------------------|
D|--------------------------------|--------------------------------|
A|--------------------------------|--------------------------------|
E|--------------------------------|--------------------------------|

E|--------------------------------|--------------------------------|
B|--------------------------------|--------------------------------|
G|-7-7-7-------2---2-------2---2--|-4-4-4-2-2-2-2---2-------2---2--|
D|-7-7-7-5-5-5---4---4-5-5---4---4|-4-4-4-2-2-2---4---4-5-5---4---4|
A|-5-5-5-5-5-5---------5-5--------|-2-2-2-0-0-0---------5-5--------|
E|-------3-3-3---------3-3--------|---------------------3-3--------|
PM . . . . . . . . . . . . . . . .  . . . . . . . . . . . . . . . .
E|--------------------------------|--------------------------------|
B|--------------------------------|--------------------------------|
G|-7-7-7-------2---2-------2---2--|-4-4-4-2-2-2-2---2-------2---2--|
D|-7-7-7-5-5-5---4---4-5-5---4---4|-4-4-4-2-2-2---4---4-5-5---4---4|
A|-5-5-5-5-5-5---------5-5--------|-2-2-2-0-0-0---------5-5--------|
E|-------3-3-3---------3-3--------|---------------------3-3--------|
   . . . . . . . . . . . . . . . .  . . . . . . . . . .
E|--------------------------------|--------------------------------|
B|--------------------------------|--------------------------------|
G|-7-7-7--------------------------|-4-4-4-2-2-2-2-2-2-2------------|
D|-7-7-7-5-5-5-5-5-5-5-5-5-5-5-5-5|-4-4-4-2-2-2-2-2-2-2-5-5-5-5-5-5|x2
A|-5-5-5-5-5-5-5-5-5-5-5-5-5-5-5-5|-2-2-2-0-0-0-0-0-0-0-5-5-5-5-5-5|
E|-------3-3-3-3-3-3-3-3-3-3-3-3-3|---------------------3-3-3-3-3-3|

E|--------------------------------|--------------------------------|
B|--------------------------------|--------------------------------|
G|--------------------------------|--------------------------------|
D|--------------------------------|--------------------------------|
A|-5-5-5-5-5-5-5-5-5-5-5-5-5-5-5-5|-5-5-5-5-5-5-5-5-5-5-5-5-5-5-5-5|
E|--------------------------------|--------------------------------|
   . . . . . . . . . . . . . . . .  gradually release
Verse 1
E|--------------------------------|--------------------------------|
B|--------------------------------|--------------------------------|
G|---------------2-2-------4-4-4--|---------------4-4-------2-2-2--|
D|-5-5-----------2-2-------4-4-4-5|-5-5-----------4-4-------2-2-2-5|x4
A|-5-5-----------0-0-------2-2-2-5|-5-5-----------2-2-------0-0-0-5|
E|-3-3---------------------------3|-3-3---------------------------3|

Pre chorus 1
E|--------------------------------|--------------------------------|
B|--------------------------------|--------------------------------|
G|-7-------2------2---2-2-2-------|-4---2---2-----2---2-2-2--------|
D|-7---5---2------2---2-2-2-------|-4---2---2-----2---2-2-2--------|
A|-5---5---0------0---0-0-0-------|-2---0---0-----0---0-0-0--------|
E|-----3--------------------------|--------------------------------|

Chorus
E|--------------------------------|--------------------------------|
B|--------------------------------|--------------------------------|
G|-7-7-7--------------------------|-4-4-4-2-2-2-2-2-2-2------------|
D|-7-7-7-5-5-5-5-5-5-5-5-5-5-5-5-5|-4-4-4-2-2-2-2-2-2-2-5-5-5-5-5-5|x4
A|-5-5-5-5-5-5-5-5-5-5-5-5-5-5-5-5|-2-2-2-0-0-0-0-0-0-0-5-5-5-5-5-5|
E|-------3-3-3-3-3-3-3-3-3-3-3-3-3|---------------------3-3-3-3-3-3|

Verse 2
E|--------------------------------|--------------------------------|
B|--------------------------------|--------------------------------|
G|-7-7-7-------2---2-------2---2--|-4-4-4-2-2-2-2---2-------2---2--|
D|-7-7-7-5-5-5---4---4-5-5---4---4|-4-4-4-2-2-2---4---4-5-5---4---4|x2
A|-5-5-5-5-5-5---------5-5--------|-2-2-2-0-0-0---------5-5--------|
E|-------3-3-3---------3-3--------|---------------------3-3--------|
PM . . . . . .         . .          . . . . . .         . .    
E|--------------------------------|--------------------------------|
B|--------------------------------|--------------------------------|
G|-7-7-7--------------------------|-4-4-4-2-2-2-2-2-2-2------------|
D|-7-7-7-5-5-5-5-5-5-5-5-5-5-5-5-5|-4-4-4-2-2-2-2-2-2-2-5-5-5-5-5-5|x2
A|-5-5-5-5-5-5-5-5-5-5-5-5-5-5-5-5|-2-2-2-0-0-0-0-0-0-0-5-5-5-5-5-5|
E|-------3-3-3-3-3-3-3-3-3-3-3-3-3|---------------------3-3-3-3-3-3|
   . .   . . .         . .          . .   . . .         . .
Pre chorus 2
E|--------------------------------|--------------------------------|
B|--------------------------------|--------------------------------|
G|--------------------------------|--------------------------------|
D|--------------------------------|--------------------------------|
A|-5-5-5-5-5-5-5-5-5-5-5-5-5-5-5-5|-5-5-5-5-5-5-5-5-5-5-5-5-5-5-5-5|
E|--------------------------------|--------------------------------|
   . . . . . . . . . . . . . . . .  . . . . . . . . . . . . . . . .
E|--------------------------------|--------------------------------|
B|--------------------------------|--------------------------------|
G|--------------------------------|-------------------------2---2--|
D|--------------------------------|---------------------5-5---4---4|
A|-5-5-5-5-5-5-5-5-5-5-5-5-5-5-5-5|-5-5-5-5-5-5-5-5-5-5-5-5--------|
E|--------------------------------|---------------------3-3--------|
   . . . . . . . . . . . . . . . .  . . . . . . . . . . 
Chorus same as last

Bridge
E|--------------------------------|
B|--------------------------------|
G|-7---4---2----------------------|
D|-7---4---2----------------------|
A|-5---2---0----------------------|
E|--------------------------------|

E|--------------------------------|--------------------------------|
B|--------------------------------|--------------------------------|
G|-7---4---2----------------------|---------7----------------------|
D|-7---4---2----------------------|-5---5---7----------------------|x5
A|-5---2---0----------------------|-5---5---5----------------------|
E|--------------------------------|-3---3--------------------------|

E|--------------------------------|--------------------------------|
B|--------------------------------|--------------------------------|
G|-7---4---2----------------------|--------------------------------|
D|-7---4---2----------------------|-5---5---5----------------------|
A|-5---2---0----------------------|-5---5---5----------------------|
E|--------------------------------|-3---3---3----------------------|
                                    .   .   .
Last chorus
E|--------------------------------|
B|--------------------------------|
G|--------------------------------|
D|--------------------------------|x3 
A|--------------------------------|
E|--------------------------------|

E|--------------------------------|
B|--------------------------------|
G|--------------------------------|
D|----------------------------5---|
A|----------------------------5---|
E|----------------------------3---|

E|--------------------------------|--------------------------------|
B|--------------------------------|--------------------------------|
G|-7-7-7--------------------------|-4-4-4-2-2-2-2-2-2-2------------|
D|-7-7-7-5-5-5-5-5-5-5-5-5-5-5-5-5|-4-4-4-2-2-2-2-2-2-2-5-5-5-5-5-5|x4
A|-5-5-5-5-5-5-5-5-5-5-5-5-5-5-5-5|-2-2-2-0-0-0-0-0-0-0-5-5-5-5-5-5|
E|-------3-3-3-3-3-3-3-3-3-3-3-3-3|---------------------3-3-3-3-3-3|



Guitar 2 (NB  note the elongated bars)
Intro
E|---------------------------------|---------------------------------|
B|---------------------------------|---------------------------------|
G|-7-7-7-6-7/14-\11--9---11--111111|-7-7-7-6-7/14-\11--9---11--111111|
D|-0-0-0-0-0-0---0---0---0---0-0-0-|-0-0-0-0-0-0---0---0---0---0-0-0-|x2
A|---------------------------------|---------------------------------|
E|---------------------------------|---------------------------------|

E|---------------------------------|--------------------------------|
B|---------------------------------|--------------------------------|
G|-7-7-7-6-7/14-\11--9---11--111111|-7-7-7-6-7/14-\11--9-----2---2--|
D|-0-0-0-0-0-0---0---0---0---0-0-0-|-0-0-0-0-0-0---0---0-5-5---4---4|
A|---------------------------------|---------------------5-5--------|
E|---------------------------------|---------------------3-3--------|

E|---------------------------------|---------------------------------|
B|---------------------------------|---------------------------------|
G|-7-7-7-6-7/14-\11--9---11--111111|-7-7-7-6-7/14-\11--9---11--111111|
D|-0-0-0-0-0-0---0---0---0---0-0-0-|-0-0-0-0-0-0---0---0---0---0-0-0-|x2
A|---------------------------------|---------------------------------|
E|---------------------------------|---------------------------------|

E|-------------------------9---9---9---------------10--10--10------|
B|-10--10--10------------------------------------------------------|
G|-------------11--11--11--------------11--11--11--------------11--|
D|-----------------------------------------------------------------|x2
A|-----------------------------------------------------------------|
E|-----------------------------------------------------------------|
PM .   .   .   .   .   .   .   .   .   .   .   .   .   .   .   .
Verse 1
E|-------------------------9---9---9---------------10--10--10------|
B|-10--10--10------------------------------------------------------|
G|-------------11--11--11--------------11--11--11--------------11--|
D|-----------------------------------------------------------------|
A|-----------------------------------------------------------------|
E|-----------------------------------------------------------------|
               .   .   .               .   .   .   
E|-----------------------------------------------------------------|
B|-10--10--10------------------------------------------------------|
G|-------------------------11--11--11---------------9---9---9------|All
D|-------------12--12--12--------------12--12--12--------------12--|x2
A|-----------------------------------------------------------------|
E|-----------------------------------------------------------------|
               .   .   .               .   .   .   
Pre chorus 1
E|--------------------------------|--------------------------------|
B|--------------------------------|--------------------------------|
G|--------------------------------|--------------------------------|
D|--------------------------------|--------------------------------|
A|--------------------------------|--------------------------------|
E|--------------------------------|--------------------------------|

Chorus
E|---------------------------------|---------------------------------|
B|---------------------------------|---------------------------------|
G|-7-7-7-6-7/14-\11--9---11--111111|-7-7-7-6-7/14-\11--9---11--111111|
D|-0-0-0-0-0-0---0---0---0---0-0-0-|-0-0-0-0-0-0---0---0---0---0-0-0-|x4
A|---------------------------------|---------------------------------|
E|---------------------------------|---------------------------------|

Verse 2
E|--------------------------------|--------------------------------|
B|--------------------------------|--------------------------------|
G|-7-7-7-------2---2-------2---2--|-4-4-4-2-2-2-2---2-------2---2--|
D|-7-7-7-5-5-5---4---4-5-5---4---4|-4-4-4-2-2-2---4---4-5-5---4---4|x2
A|-5-5-5-5-5-5---------5-5--------|-2-2-2-0-0-0---------5-5--------|
E|-------3-3-3---------3-3--------|---------------------3-3--------|
   . . . . . .         . .          . . . . . .         . .    
E|--------------------------------|--------------------------------|
B|--------------------------------|--------------------------------|
G|-7-7-7--------------------------|-4-4-4-2-2-2-2-2-2-2------------|
D|-7-7-7-5-5-5-5-5-5-5-5-5-5-5-5-5|-4-4-4-2-2-2-2-2-2-2-5-5-5-5-5-5|x2
A|-5-5-5-5-5-5-5-5-5-5-5-5-5-5-5-5|-2-2-2-0-0-0-0-0-0-0-5-5-5-5-5-5|
E|-------3-3-3-3-3-3-3-3-3-3-3-3-3|---------------------3-3-3-3-3-3|
   . .   . . .         . .          . .   . . .         . .
Pre chorus 2
E|--------------------------------|--------------------------------|
B|--------------------------------|--------------------------------|
G|-7-7-7-------2---2-------2---2--|-4-4-4-2-2-2-2---2-------2---2--|
D|-7-7-7-5-5-5---4---4-5-5---4---4|-4-4-4-2-2-2---4---4-5-5---4---4|
A|-5-5-5-5-5-5---------5-5--------|-2-2-2-0-0-0---------5-5--------|
E|-------3-3-3---------3-3--------|---------------------3-3--------|
   . . . . . . . . . . . . . . . .  . . . . . . . . . . . . . . . .
E|--------------------------------|--------------------------------|
B|--------------------------------|--------------------------------|
G|-7-7-7-------2---2-------2---2--|-4-4-4-2-2-2-2---2-------2---2--|
D|-7-7-7-5-5-5---4---4-5-5---4---4|-4-4-4-2-2-2---4---4-5-5---4---4|
A|-5-5-5-5-5-5---------5-5--------|-2-2-2-0-0-0---------5-5--------|
E|-------3-3-3---------3-3--------|---------------------3-3--------|
   . . . . . . . . . . . . . . . .  . . . . . . . . . . 
Chorus same as last

Bridge
E|----------------------------10--|
B|-10-----------------------------|
G|-----11--9------9---9---11------|
D|--------------------------------|
A|--------------------------------|
E|--------------------------------|

E|--------------------------------|--------------------------------|
B|--------------------------------|--------------------------------|
G|--------------------------------|--------------------------------|
D|--------------------------------|--------------------------------|x2
A|--------------------------------|--------------------------------|
E|--------------------------------|--------------------------------|

E|--------------------------10----|--------------------------------|
B|-10-----------------------------|-10-----------------------------|
G|------11---9----7-9-7-9-11------|------11---9----7-9-7-9-11------|
D|--------------------------------|--------------------------12----|x3
A|--------------------------------|--------------------------------|
E|--------------------------------|--------------------------------|

E|--------------------------10----|-10-----------------------------|
B|-10-----------------------------|------12---10-------------------|
G|------11---9----7-9-7-9-11------|--------------------------------|
D|--------------------------------|--------------------------------|
A|--------------------------------|--------------------------------|
E|--------------------------------|--------------------------------|

Last chorus
E|---------------------------------|---------------------------------|
B|---------------------------------|---------------------------------|
G|-7-7-7-6-7/14-\11--9---11--111111|-7-7-7-6-7/14-\11--9---11--111111|
D|-0-0-0-0-0-0---0---0---0---0-0-0-|-0-0-0-0-0-0---0---0---0---0-0-0-|x2
A|---------------------------------|---------------------------------|
E|---------------------------------|---------------------------------|

E|---------------------------------|---------------------------------|
B|---------------------------------|---------------------------------|
G|-7-7-7-6-7/14-\11--9---11--111111|-7-7-7-6-7/14-\11--9-------------|
D|-0-0-0-0-0-0---0---0---0---0-0-0-|-0-0-0-0-0-0---0---0---5---------|
A|---------------------------------|-----------------------5---------|
E|---------------------------------|-----------------------3---------|

E|---------------------------------|---------------------------------|
B|---------------------------------|---------------------------------|
G|-7-7-7-6-7/14-\11--9---11--111111|-7-7-7-6-7/14-\11--9---11--111111|
D|-0-0-0-0-0-0---0---0---0---0-0-0-|-0-0-0-0-0-0---0---0---0---0-0-0-|x3
A|---------------------------------|---------------------------------|
E|---------------------------------|---------------------------------|

E|---------------------------------|---------------------------------|
B|---------------------------------|---------------------------------|
G|-7-7-7-6-7/14-\11--9---11--111111|-7-7-7-6-7/14-\11--9-------------|
D|-0-0-0-0-0-0---0---0---0---0-0-0-|-0-0-0-0-0-0---0---0--------5-5-5|
A|---------------------------------|----------------------------5-5-5|
E|---------------------------------|----------------------------3-3-3|





Comments


Popular The Story So Far tabs & chords
Roam Bass Tabs
States And Minds Bass Tabs
680 South Chords
May Chords
Things I Cant Change Chords
680 South 2 Tabs
Four Years Tabs
Rally Cap Tabs
The Glass Tabs
Things I Cant Change Tabs


Song lyrics



↑ Back to top | Tablatures and chords are parodies/interpretations of the original songs. You may use it for private study, scholarship, research or language learning purposes only
© 2014 AZChords.com Contact us | Privacy policy | DMCA | Add/correct tabs | Request tabs | Top 50 tabs