» » »

The Sound Of Animals Fighting, The Heraldic Beak Of The Manufacturer's Medallion Tabs (ver.3)

Artists:  A B C D E F G H I J K L M N O P Q R S T U V W X Y Z # 

The Heraldic Beak Of The Manufacturer's Medallion Tabs (ver.3)

The Sound Of Animals Fighting Tabs
 Rating:
4/5 (4 votes)
The Heraldic Beak Of The Manufacturer's Medallion lessons Tabs too difficult? Try these video lessons and learn fast
1
                -------------------------------------------------------------------------------
                             SONG NAME - Band Name
-------------------------------------------------------------------------------

Tuning: Db Ab Db Gb Bb eb (Drop D tuning down a half step)

(4x)  1   +   2   +   3   +   4   +   1   +   2   +   3   +   4   +   5   + 
eb|--------------------------------------------------------------------------|
Bb|-------------------------------------------------------------------------o|
Gb|--------------------------------------------------------------------------|
Db|-------9-------/---12--0-----------------------7-----------7-----------0--|
Ab|-----------7---/-----------7---10109---7-----------7-----------7---------o|
Db|---7-----------/---------------------------10----------10----------10-----|
                 *slide entire shape up 3 frets   M   I       M   I


(4x)  1   +   2   +   3   +   4   +   1   +   2   +   3   +   
eb|--------------------------------------------------------------------------|
Bb|-------------------------------------------------------------------------o|
Gb|--------------------------------------------------------------------------|
Db|-------10------/---13------10--131311------10--11------0------------------|
Ab|-----------8---/-------11--------------11----------13--------------------o|
Db|---8-----------/----------------------------------------------------------|
                 *slide entire shape up 3 frets

Then just repeat the whole thing again before the heavy part, which I will
tab out soon.

Good Luck! It's a tough riff, but once I figured out how it matches up with
this tuning it flows a lot easier. Pretty sure this is accurate. Feel free
to e-mail... It's always nice to meet a TSOAF fan.

Lucas


| /  slide up
| \  slide down
| h  hammer-on
| p  pull-off
| ~  vibrato
| +  harmonic
| x  Mute note
===============================================================================
            
Submit corrections

comments powered by Disqus
↑ Back to top | The Sound Of Animals Fighting Tabs for The Heraldic Beak Of The Manufacturer's Medallion. Lyrics for acoustic guitar and electric guitar. 1 Tablatures and chords are parodies/interpretations of the original songs. You may use it for private study, scholarship, research or language learning purposes only