» » »

The Sound Of Animals Fighting, The Heraldic Beak Of The Manufacturer's Medallion Tabs (ver.2)

Artists:  A B C D E F G H I J K L M N O P Q R S T U V W X Y Z # 

The Heraldic Beak Of The Manufacturer's Medallion Tabs (ver.2)

The Sound Of Animals Fighting Tabs
Rating:
0/5 (0 votes)
The Heraldic Beak Of The Manufacturer's Medallion lessons Tabs too difficult? Try these video lessons and learn fast
                4x ---------------------------------------------------------------|
   -----------------2---------------------------------------------|
   --------3-------------------------1-------1--------------------|
   -----------1~4-----------443---------1-------1--------0--------|
   --------------------4-6------4-1--------2-------2--3-----------|
   -----4---------------------------------------------------------|

4x ---------------------------------------------------------------|
   ---------0-------3-------331---0--1----------------------------|
   --------------------2-4------0-------3-------------------------|
   -----------0h2-------------------------------------------------|
   -----0----------------------------------3----------------------|
   ---------------------------------------------------------------|

4x ---------------------------------------------------------------|
   -----------------2---------------------------------------------|
   --------3-------------------------1-------1--------------------|
   -----------1~4-----------443---------1-------1--------0--------|
   --------------------4-6------4-1--------2-------2--3-----------|
   -----4---------------------------------------------------------|

4x ---------------------------------------------------------------|
   ---------0-------3-------331---0--1----------------------------|
   --------------------2-4------0-------3-------------------------|
   -----------0h2-------------------------------------------------|
   -----0----------------------------------3----------------------|
   ---------------------------------------------------------------|

3x --------------------------------------------2--------0---------|
   ------------------------------------------2--------0-----------|
   ----------------------------------------2--------1-------------|
   -----4-4---4-4---4-4---4-4---x44------2--------2---------------|
   -----4-4---4-4---4-4---4-4---x44----0--------------------------|
   -----4-4---4-4---4-4---4-4---x44-------------------------------|

   ---------------------------------------------------------------|
   ---------------------------------------------------------------|
   ---------------------------------------------------------------|
   -----4-4---4-4---4-4---4-4---x44--------4-4---4-4---4-4---x44--|
   -----4-4---4-4---4-4---4-4---x44--------4-4---4-4---4-4---x44--|
   -----4-4---4-4---4-4---4-4---x44--------4-4---4-4---4-4---x44--|

   --------------------------------------------2--------0h2-------|
   ------------------------------------------2--------0-----------|
   ----------------------------------------2--------1-------------|
   -----4-4---4-4---4-4---4-4---x44------2--------2---------------|
   -----4-4---4-4---4-4---4-4---x44----0--------------------------|
   -----4-4---4-4---4-4---4-4---x44-------------------------------|

2x --------------------------------------------2------------------|
   ------------------------------------------2--------0-----------|
   ----------------------------------------2--------1---1---------|
   -----4-4---4-4---4-4---4-4---x44------2--------2---------------|
   -----4-4---4-4---4-4---4-4---x44----0--------------------------|
   -----4-4---4-4---4-4---4-4---x44-------------------------------|

   ---------------------------------------------------------------|
   ---------------------------------------------------------------|
   ---------------------------------------------------------------|
   -----4-4---4-4---4-4---4-4---x44-------------------------------|
   -----4-4---4-4---4-4---4-4---x44----0-0-0-0-0-0-0-0------------|
   -----4-4---4-4---4-4---4-4---x44----0-0-0-0-0-0-0-0------------|

 4x---------------------------------------------------------------|
   ---------------------------------------------------------------|
   ---------------------------------------------------------------|
   ---------------------------------------------------------------|
   -----4-4-4-4-4-4-4-2-2-2-2-2-------------0-0-0-0-0-0-0---------|
   -----------------------------4-4-4-4-4-4-----------------------|
On the last time through don't play the seven A's and continue strumming on the fourth 
on the E string.


I am currently working on this so keep expecting updates!!
            

comments powered by Disqus
↑ Back to top | The Sound Of Animals Fighting Tabs for The Heraldic Beak Of The Manufacturer's Medallion. Lyrics for acoustic guitar and electric guitar. Tablatures and chords are parodies/interpretations of the original songs. You may use it for private study, scholarship, research or language learning purposes only