>
 >
The Heraldic Beak Of The Manufacturer's Medallion

The Heraldic Beak Of The Manufacturer's Medallion Guitar Tabs

The Sound Of Animals Fighting - The Heraldic Beak Of The Manufacturer's Medallion chords, tabs, tablatures, lyrics

Guitar lessons | Add/correct | Request | Top 50 tabs Artists:  A B C D E F G H I J K L M N O P Q R S T U V W X Y Z 0-9

The Heraldic Beak Of The Manufacturer's Medallion Guitar Tabs – The Sound Of Animals Fighting

CD, Sheet music, Poster

Do you like The Heraldic Beak Of The Manufacturer's Medallion? Share with your friends now
TabsTabs v2Tabs v3
-------------------------------------------------------------------------------
               The Heraldic Beak Of The Manufacturer - TSOAF
-------------------------------------------------------------------------------

Tuning: Db Ab Db Gb Bb eb (Drop D tuning down a half step)

(4x)  1   +   2   +   3   +   4   +   1   +   2   +   3   +   4   +   5   +
eb|--------------------------------------------------------------------------|
Bb|-------------------------------------------------------------------------o|
Gb|--------------------------------------------------------------------------|
Db|-------9-------/---12--0-----------------------7-----------7-----------0--|
Ab|-----------7---/-----------7---10109---7-----------7-----------7---------o|
Db|---7-----------/---------------------------10----------10----------10-----|
                 *slide entire shape up 3 frets   M   I       M   I


(4x)  1   +   2   +   3   +   4   +   1   +   2   +   3   +
eb|--------------------------------------------------------------------------|
Bb|-------------------------------------------------------------------------o|
Gb|--------------------------------------------------------------------------|
Db|-------10------/---13------10--131311------10--11------0------------------|
Ab|-----------8---/-------11--------------11----------13--------------------o|
Db|---8-----------/----------------------------------------------------------|
                 *slide entire shape up 3 frets

Repeat the intro section then go into this with some DIRTY DISTORTION

   1   2   3   4   1   2   3   4   1   2   3   4   1   2   3   4
eb|-------------------------------------------------------------------------|
Bb|------------------------------------------------6h8---------6h8----------|
Gb|-------------------------------------------------------------------------|
Db|--5-5---5-5---5-5---5-5---x-5-5---0-0---0---------------7h8--------------|
Ab|--5-5---5-5---5-5---5-5---x-5-5---0-0---0---7h8-----7h8------------------|
Db|--5-5---5-5---5-5---5-5---x-5-5---0-0---0--------------------------------|

eb|-------------------------------------------------------------------------|
Bb|------------------------------------------------6h8----------------------|
Gb|-------------------------------------------------------------------------|
Db|--5-5---5-5---5-5---5-5---x-5-5---0-0---0---------------7h8--------------|
Ab|--5-5---5-5---5-5---5-5---x-5-5---0-0---0---7h8-----7h8-----7h8\---------|
Db|--5-5---5-5---5-5---5-5---x-5-5---0-0---0--------------------------------|

eb|-------------------------------------------------------------------------|
Bb|------------------------------------------------6h8---------6h8----------|
Gb|-------------------------------------------------------------------------|
Db|--5-5---5-5---5-5---5-5---x-5-5---0-0---0---------------7h8--------------|
Ab|--5-5---5-5---5-5---5-5---x-5-5---0-0---0---7h8-----7h8------------------|
Db|--5-5---5-5---5-5---5-5---x-5-5---0-0---0--------------------------------|

                                   1   2   3   4   5   6 (one measure of 6/4)
eb|-------------------------------------------------------------------------|
Bb|-------------------------------------------------------------------------|
Gb|-------------------------------------------------------------------------|
Db|--5-5---5-5---5-5---5-5---xx5-5---0-0---0--------------------------------|
Ab|--5-5---5-5---5-5---5-5---xx5-5---0-0---0--------------------------------|
Db|--5-5---5-5---5-5---5-5---xx5-5---0-0---0---8\--0-0-3p0------------------|
                                                   pm-|

repeat that hardcore section, then end on this instead of the last of the 4 phrases:

                                   1   2   3   4   5   6   7   8
eb|-------------------------------------------------------------------------|
Bb|-------------------------------------------------------------------------|
Gb|-------------------------------------------------------------------------|
Db|--5-5---5-5---5-5---5-5---xx5-5---0-0---0-------x-x-x-x-x-x--------------|
Ab|--5-5---5-5---5-5---5-5---xx5-5---0-0---0-------x-x-x-x-x-x--------------|
Db|--5-5---5-5---5-5---5-5---xx5-5---0-0---0---8\--x-x-x-x-x-x-3p0----------|

going into the next part

"This may or may not be a picture that you recognize..."

eb|-----------------------------------------------------------------|
Bb|--------------------------------------------------3---3-3-----3--|
Gb|2-2-2-2-2---2-2-5-5-5-5-5---5-5-4-4-4-4-4-----4---5---5-5-----5--|
Db|0-0-0-0-0-xx0-0-5-5-5-5-5-xx5-5-2-2-2-2-2-xx--2-xx3-xx3-5-xxx-5--|
Ab|0-0-0-0-0-xx0-0-3-3-3-3-3-xx3-3-2-2-2-2-2-xx--2-xx3-xx3-3-xxx-3--|
Db|0-0-0-0-0-xx0-0-5-5-5-5-5-xx5-5-2-2-2-2-2-xx--2-xx3-xx3-3-xxx-3--|
   pm-----|        pm-----|        pm-------------------------------|      ^   ^   ^
                                                 (on the upbeat)

eb|-------------------------------------------------------------------------|
Bb|--------------------------------------------------3---3-3-----3----------|
Gb|2-2-2-2-2---2-2-5-5-5-5-5---5-5-4-4-4-4-4-----4---5---5-5-----5----------|
Db|0-0-0-0-0-xx0-0-5-5-5-5-5-xx5-5-2-2-2-2-2-xx--2-xx3-xx3-5-xxx-5----------|
Ab|0-0-0-0-0-xx0-0-3-3-3-3-3-xx3-3-2-2-2-2-2-xx--2-xx3-xx3-3-xxx-3----------|
Db|0-0-0-0-0-xx0-0-5-5-5-5-5-xx5-5-2-2-2-2-2-xx--2-xx3-xx3-3-xxx-3----------|

eb|-------------------------------------------------------------------------|
Bb|--------------------------------------------------3---3-3-----3----------|
Gb|2-2-2-2-2---2-2-5-5-5-5-5---5-5-4-4-4-4-4-----4---5---5-5-----5----------|
Db|0-0-0-0-0-xx0-0-5-5-5-5-5-xx5-5-2-2-2-2-2-xx--2-xx3-xx3-5-xxx-5----------|
Ab|0-0-0-0-0-xx0-0-3-3-3-3-3-xx3-3-2-2-2-2-2-xx--2-xx3-xx3-3-xxx-3----------|
Db|0-0-0-0-0-xx0-0-5-5-5-5-5-xx5-5-2-2-2-2-2-xx--2-xx3-xx3-3-xxx-3----------|

eb|-------------------------------------------------------------------------|
Bb|--------------------------------------------------3---3-3----------------|
Gb|2-2-2-2-2---2-2-5-5-5-5-5---5-5-4-4-4-4-4-----4---5---5-5----------------|
Db|0-0-0-0-0-xx0-0-5-5-5-5-5-xx5-5-2-2-2-2-2-xx--2-xx3-xx3-5----------------|
Ab|0-0-0-0-0-xx0-0-3-3-3-3-3-xx3-3-2-2-2-2-2-xx--2-xx3-xx3-3----------------|
Db|0-0-0-0-0-xx0-0-5-5-5-5-5-xx5-5-2-2-2-2-2-xx--2-xx3-xx3-3----------------|

Then the really sweet ambient sounding part with Anthony singing on "Ahhh"
These two guitars make a nice harmony together

Guitar 1: (Right Headphone)

     1   2   3   4 + 1 + 2 + 3 + 4
eb|----------------------------------|
Bb|----------------5---------6-h-5---|
Gb|------5-------------5-------------|
Db|----------7---5---------7---------|
Ab|-/8-------------------------------|
Db|----------------------------------|

Guitar 2: (Left Headphone) This guitar was harder to decipher, but whether this is right
not, it sounds SICK

     1   2   3   4 + 1 + 2 + 3 + 4
eb|----------------------------------|
Bb|----------------------------------|
Gb|----------------5p0-------7-------|
Db|------7p0-----------5p0-----------|
Ab|--5p0-----8p0h8-------------------|
Db|------------------------8---------|

So repeat that little ambient line for a bit until it goes back into this:

eb|-------------------------------------------------------------------------|
Bb|--------------------------------------------------3---3-3-----3----------|
Gb|2-2-2-2-2---2-2-5-5-5-5-5---5-5-4-4-4-4-4-----4---5---5-5-----5----------|
Db|0-0-0-0-0-xx0-0-5-5-5-5-5-xx5-5-2-2-2-2-2-xx--2-xx3-xx3-5-xxx-5----------|
Ab|0-0-0-0-0-xx0-0-3-3-3-3-3-xx3-3-2-2-2-2-2-xx--2-xx3-xx3-3-xxx-3----------|
Db|0-0-0-0-0-xx0-0-5-5-5-5-5-xx5-5-2-2-2-2-2-xx--2-xx3-xx3-3-xxx-3----------|

                                                  |---triplet 8th notes-------|
eb|---------------------------------------------------------------------------|
Bb|---------------------------------------------------------------------------|
Gb|2-2-2-2-2---2-2-5-5-5-5-5---5-5-4-4-4-4-4-----4----------------------------|
Db|0-0-0-0-0-xx0-0-5-5-5-5-5-xx5-5-2-2-2-2-2-xx--2------------7--7-8-9-10-11--|
Ab|0-0-0-0-0-xx0-0-3-3-3-3-3-xx3-3-2-2-2-2-2-xx--2-7-8-10-8-10-10-------------|
Db|0-0-0-0-0-xx0-0-5-5-5-5-5-xx5-5-2-2-2-2-2-xx--2----------------------------|

Back into the hardcore part from the beginning:

eb|-------------------------------------------------------------------------|
Bb|------------------------------------------------6h8---------6h8----------|
Gb|-------------------------------------------------------------------------|
Db|--5-5---5-5---5-5---5-5---x-5-5---0-0---0---------------7h8--------------|
Ab|--5-5---5-5---5-5---5-5---x-5-5---0-0---0---7h8-----7h8------------------|
Db|--5-5---5-5---5-5---5-5---x-5-5---0-0---0--------------------------------|

eb|-------------------------------------------------------------------------|
Bb|------------------------------------------------6h8----------------------|
Gb|-------------------------------------------------------------------------|
Db|--5-5---5-5---5-5---5-5---x-5-5---0-0---0---------------7h8--------------|
Ab|--5-5---5-5---5-5---5-5---x-5-5---0-0---0---7h8-----7h8-----7h8\---------|
Db|--5-5---5-5---5-5---5-5---x-5-5---0-0---0--------------------------------|

eb|-------------------------------------------------------------------------|
Bb|------------------------------------------------6h8---------6h8----------|
Gb|-------------------------------------------------------------------------|
Db|--5-5---5-5---5-5---5-5---x-5-5---0-0---0---------------7h8--------------|
Ab|--5-5---5-5---5-5---5-5---x-5-5---0-0---0---7h8-----7h8------------------|
Db|--5-5---5-5---5-5---5-5---x-5-5---0-0---0--------------------------------|

                                   1   2   3   4   5   6   7   8
eb|-------------------------------------------------------------------------|
Bb|-------------------------------------------------------------------------|
Gb|-------------------------------------------------------------------------|
Db|--5-5---5-5---5-5---5-5---xx5-5---0-0---0-------x-x-x-x-x-x--------------|
Ab|--5-5---5-5---5-5---5-5---xx5-5---0-0---0-------x-x-x-x-x-x--------------|
Db|--5-5---5-5---5-5---5-5---xx5-5---0-0---0---8\--x-x-x-x-x-x-3p0----------|

                                  (triplet)
   1 + 2 + 3 + 4 + 1   2   3   4   1 + a 2   3   4   1   2   3   4
eb|--------------------------------------------------------7----------------|
Bb|--------7b8r7---------3p0-----3h5p3p0-3p0-7b8r7-5p0-8p0---8p0-7~---------|
Gb|--------------7p0-2h4-----2h4--------------------------------------------|
Db|2p0---0------------------------------------------------------------------|
Ab|----2--------------------------------------------------------------------|
Db|-------------------------------------------------------------------------|

SUPER AWESOME DRUM BREAK

eb|--------------------------------------------------------7----------------|
Bb|--------7b8r7---------3p0-----3h5p3p0-3p0-7b8r7-5p0-8p0---8p0-7p0--------|
Gb|--------------7p0-2h4-----2h4--------------------------------------------|
Db|2p0---0------------------------------------------------------------------|
Ab|----2--------------------------------------------------------------------|
Db|-------------------------------------------------------------------------|

                                                         (tiny difference)
                                                             vvvvvvv
eb|--------------------------------------------------------7----------------|
Bb|--------7b8r7---------3p0-----3h5p3p0-3p0-7b8r7-5p0-8p0---7p0-8p0--------|
Gb|--------------7p0-2h4-----2h4--------------------------------------------|
Db|2p0---0------------------------------------------------------------------|
Ab|----2--------------------------------------------------------------------|
Db|-------------------------------------------------------------------------|

Repeat that a bunch of times, and maybe have another guitar harmonize... that part is
damn hard to decipher, but just solo over it or something.
Then:
(the Rhythm is yours to mess with, these are the chords)

eb|-------------------------------------------------------------------------|
Bb|-8-------------7-----------------5---------------7-----------------------|
Gb|-9-------------7-----------------5---------------7-----------------------|
Db|-9-------------7-----------------5---------------7-----------------------|
Ab|-10------------9-----------------7---------------9-----------------------|
Db|-------------------------------------------------------------------------|

After that a bunch of times do this 2x:
    1   2   3   4   1   2   3   4
eb|---------------------------------|
Bb|---------------------------------|
Gb|-4-4---11--11x-4---4---11121211\-|
Db|-2-2---x---x-x-2---2---x-x-x-x---|
Ab|-2-2---9---9-x-2---2---9-1010-9\-|
Db|-2-2---------x-2---2-------------|

Then this part in 7/4:

    1   2   3   4 + 1 + 2 + 3 +
eb|-----------------------------|
Bb|-----------------------------|
Gb|-9---12--9-7---9---12--109-7-|
Db|-x---x---x-x---x---x---x-x-x-|
Ab|-7---10--7-5---7---10--9-7-5-|
Db|-----------------------------|

After that plays 4 times guitar 2 comes in:

    1   2   3   4 + 1 + 2 + 3 +
eb|-----------------------------|
Bb|-8---12--8-7---8---12--108-7-|
Gb|-x---x---x-x---x---x---x-x-x-|
Db|-5---9---5-4---5---9---7-5-4-|
Ab|-----------------------------|
Db|-----------------------------|

Then it goes back into the hardcore thing from the triplet 8th note part
Then when it goes back into the ambient section:

(After the first time there is a kill switch thing he does, or you could do it with a 
pedal)

Guitar 1: (Right Headphone)
     1 2+3 4 1+2 3 4 1
eb|----------------------------------|
Bb|----------------------------------|
Gb|----------------------------------|
Db|-----7----------------------------|
Ab|--5-----8-----7---5---------------|
Db|-----------7----------------------|

Guitar 2: (Left Headphone)
     1 2+3 4 1+2 3 4 1
eb|----------------------------------|
Bb|----------------------------------|
Gb|-----5----------------------------|
Db|--------7--8--5-------------------|
Ab|--8---------------8~--FEEDBACK!!--|
Db|----------------------------------|

Then the song fades out...
Good Lord that was like transcribing a symphony.
Peace

Lucas

| /  slide up
| \  slide down
| h  hammer-on
| p  pull-off
| ~  vibrato
| +  harmonic
| x  Mute note
| pm Palm mute
| b  Bend
| r  Release

===============================================================================





Comments


Popular The Sound Of Animals Fighting tabs & chords
Act II: All Is Ash Or The Light Shining Through It" Bass Tabs
Act III: Modulate Back To The Tonic Bass Tabs
Horses In The Sky Bass Tabs
Act I: Chasing Suns Tabs
Act IV: You Don't Need A Witness Tabs
Another Leather Lung Tabs
Another Leather Lung 1 Tabs
Lude Tabs
The Heraldic Beak Of The Manufacturer's Medallion 1 Tabs
Heretic Ukulele


Song lyrics



↑ Back to top | Tablatures and chords are parodies/interpretations of the original songs. You may use it for private study, scholarship, research or language learning purposes only
© 2014 AZChords.com Contact us | Privacy policy | DMCA | Add/correct tabs | Request tabs | Top 50 tabs