» » »

The Script, Nothing Tabs (ver.2)

Artists:  A B C D E F G H I J K L M N O P Q R S T U V W X Y Z # 

Nothing Tabs (ver.2)

The Script Tabs
 Rating:
4.6/5 (10 votes)
Nothing lessons Tabs too difficult? Try these video lessons and learn fast
1
                great song but no-ones tabbed it yet, so here goes :)
its drop D btw,and this is basicly from listening to the radio 1 live lounge 
version except that is played in the key of c and this is in D..to frets higher in otherwords :)

intro + verse

am i better off dead?... 
E-----------------|-----------------|---------------|---------------|
B-----------------|-----------------|---------------|---------------|
G-----14---14---14|---14---14---14--|----14---14----|---11--11--11--|
D--12----12---12--|-12---12---12----|--12---12------|--9---9---9----|
A-----------------|-----------------|---------------|---------------|
E--12-------------|-12--------------|--12-----------|--9------------|

E-----------------|-----------------|
B-----------------|-----------------|
G----9---9---9----|----9---9--------|
D--7---7---7------|--7---7----------| x2
A-----------------|-----------------|
E--7--------------|--7--------------|

as they take me to my local...
E-----------------|----------------|---------------|---------------|
B-----------------|----------------|---------------|---------------|
G-----7---7---7---|---7---7---7----|----7----7-----|----9---9---9--|
D--5----5---5-----|-5---5---5------|--5----5-------|--7---7---7----|
A-----------------|----------------|---------------|---------------|
E--5--------------|-5--------------|--5------------|--7------------|

E-----------------|-----------------|
B-----------------|-----------------|
G----9---9---9----|----9---9--------|
D--7---7---7------|--7---7----------| x2
A-----------------|-----------------|
E--7--------------|--7--------------|


chorus...these are the cords..use youre own strumming, its 2 bars each

E----------------------------|
B--15-----10----11------8----|
G--14-----9-----10------7----|
D--12-x8--7--x8-9--x8---5-x8-|
A--12-----7-----9-------5----|
E--12-----7-----9-------5----|

then back to the verse and i cant be bothered to work out the interlude so thats basically it! :)
            
Submit corrections

comments powered by Disqus
↑ Back to top | The Script Tabs for Nothing. Lyrics for acoustic guitar and electric guitar. 1 Tablatures and chords are parodies/interpretations of the original songs. You may use it for private study, scholarship, research or language learning purposes only