» » »

The Script, Im Yours Tabs

Artists:  A B C D E F G H I J K L M N O P Q R S T U V W X Y Z # 

Im Yours Tabs

(ver. 1)
The Script Tabs
 Rating:
4/5 (4 votes)
    I'm Yours lessons Tabs too difficult? Try these video lessons and learn fast

WWW.AZCHORDS.COM | The Script Tabs - Im Yours Tabs (ver. 1)


                I'm Yours -- The Script

Here is an attempt at the solo .. it's not perfect (especially the quick pull-off bit) 
but I'm hoping if I post this someone can help me correct it (my ear is really bad....)

No attempt at timing .. just split it into phrases.

Hope it's useful to someone!

(standard tuning)

E-----------------------------------------|---------------------------|
B-----------------------------------------|-----------------------10--|
G--5--7--9--10--10--9--10--10---9--7--7--|--9--10---7--9--10--9-------|
D-----------------------------------------|---------------------------|
A-----------------------------------------|---------------------------|
E-----------------------------------------|---------------------------|

E---------------------------------------------------|-------------------|
B---------------------------------------------------|-------------------|
G--10---9------------9--9h10p9-7---7--7-------------|-------------------|
D-----------10-------------------9---9---7----------|--------9--10---12-|
A---------------------------------------------------|----12-------------|
E-------------------------------------------10---7--|-------------------|


E-------------|
B- 10---------|
G-------------|  x 9
D--------12---|
A-----12------|
E-------------|

E-------------|
B--8----------|
G-------------|  x 9
D--------9----|
A-----7-------|
E-------------|


E-------------|
B--6----------|
G--------7----|  x 9
D-------------|
A-----8-------|
E-------------|

E---------------------------------------------------|
B--------------------------8----8/10---10---10------|
G---7^---9---9/10--9--10----------------------------|
D---7|----------------------------------------------|
A---5|----------------------------------------------|
E---------------------------------------------------|
            
Submit corrections

↑ Back to top | The Script Tabs for Im Yours. Lyrics for acoustic guitar and electric guitar. Tablatures and chords are parodies/interpretations of the original songs. You may use it for private study, scholarship, research or language learning purposes only