» » »

The Script, Breakeven Tabs (ver.1)

Artists:  A B C D E F G H I J K L M N O P Q R S T U V W X Y Z # 

Breakeven Tabs (ver.1)

The Script Tabs
 Rating:
2.7/5 (53 votes)
Breakeven lessons Tabs too difficult? Try these video lessons and learn fast
                Standard Tuning


Intro

E|----------------------------------------------|
B|----------------------------------------------|
G|----7---7---7---7---3p2---2---3---3-----------|
D|--8---8---8---8---8-----3---5---5---5---------| x 4
A|--6-------------------------------------------|
E|----------6---------1-------3-----------------|

Verse

E|----------------------------------------------|
B|----------------------------------------------|
G|----3---3---3---3---3---3---3---3-------------|
D|------------------0---0---1---1---------------| x 9
A|--------------------------3---3---------------|
E|--3---3---1---1-------------------------------|

Chorus

E|----------------------------------------------|
B|----------------------------------------------|
G|----7---7---7---7---3p2---2---3---3-----------|
D|--8---8---8---8---8-----3---5---5---5---------| x 4
A|--6-------------------------------------------|
E|----------6---------1-------3-----------------|

Verse

E|----------------------------------------------|
B|----------------------------------------------|
G|----3---3---3---3---3---3---3---3-------------|
D|------------------0---0---1---1---------------| x 5
A|--------------------------3---3---------------|
E|--3---3---1---1-------------------------------|

Chorus

E|----------------------------------------------|
B|----------------------------------------------|
G|----7---7---7---7---3p2---2---3---3-----------|
D|--8---8---8---8---8-----3---5---5---5---------| x 6
A|--6-------------------------------------------|
E|----------6---------1-------3-----------------|

Breakdown? Iunno that bit after

E|----------------------------------------------|	|
B|----------1-1---3---3-3-4-3-------------------|	|
G|--2h3-2h3-------------------------------------|	|
D|------------------0---------------------------|	|
A|----------------------------------------------|	|
E|----------------------------------------------|	|
							| x 2
E|--------------------------1-------------------|	|
B|----------1-1---3---3-3-----------------------|	|
G|--2h3-2h3-------------------------------------|	|
D|------------------0---------------------------|	|
A|----------------------------------------------|	|
E|----------------------------------------------|	|

E|---6-6-6-6---|
B|---8-8-8-8---|
G|---7-7-7-7---|
D|---8-8-8-8---| x 4
A|---6-6-6-6---|
E|-------------|

Verse

E|----------------------------------------------|
B|----------------------------------------------|
G|----3---3---3---3---3---3---3---3-------------|
D|------------------0---0---1---1---------------| x 4
A|--------------------------3---3---------------|
E|--3---3---1---1-------------------------------|

Chorus

E|----------------------------------------------|
B|----------------------------------------------|
G|----7---7---7---7---3p2---2---3---3-----------|
D|--8---8---8---8---8-----3---5---5---5---------| x.. Until the end of the song
A|--6-------------------------------------------|
E|----------6---------1-------3-----------------|

I'm still alive but I'm barely breathing
Just prayed to a god that I don't believe in
Cos I got tI'me while she got freedom
Cos when a heart breaks no it don't break even

Her best days will be some of my worst
She finally met a man that's gonna put her 1st
While I'm wide awake she's no trouble sleeping
Cos when a heart breaks no it don't breakeven

What am I suppose to do when the best part of me was always you
What am I suppose to say when I'm all choked up and your ok
I'm falling to pieces
I'm falling to pieces

They say bad things happen for a reason
But not wise words gonna stop the bleeding
Cos she's moved on while I'm still grieving
Cos when a heart breaks no it don't breakeven

What am I suppose to do when the best part of me was always you
What am I suppose to say when I'm all choked up and your ok
I'm falling to pieces
I'm falling to pieces
(One still in love while the other ones leaving
Cos when a heart breaks no it don't breakeven)

You got his heart and my heart and none of the pain
You took your suitcase, I took the blame.
Now I'm tryna make sense of what little remains
Cos you left me with no love, no love to my name.

I'm still alive but I'm barely breathing
Just prayed to a god that I don't believe in
Cos I got tI'me while she got freedom
Cos when a heart breaks no it don't break even

What am I gonna do when the best part of me was always you
What am I suppose to say when I'm all choked up and your ok
I'm falling to pieces
I'm falling to pieces
(One still in love while the other ones leaving
Cos when a heart breaks no it don't breakeven)
            
Submit corrections

comments powered by Disqus
↑ Back to top | The Script Tabs for Breakeven. Lyrics for acoustic guitar and electric guitar. Tablatures and chords are parodies/interpretations of the original songs. You may use it for private study, scholarship, research or language learning purposes only