» » »

The Script, I'm Yours Tabs (ver.2)

Artists:  A B C D E F G H I J K L M N O P Q R S T U V W X Y Z # 

I'm Yours Tabs (ver.2)

The Script Tabs
Rating:
0/5 (0 votes)
I'm Yours lessons Tabs too difficult? Try these video lessons and learn fast
                Intro

e|-----1-----0-----------3-|		e|-----------3-----3----|
B|---------------------1---|		B|---------1-----1---1--|
G|---3-----3-----0---0-----|	 x3	G|-------0-----0--------|
D|-0-----0-----0-----------|		D|-0h2-3-------------3--|
A|-----------------3-------|		A|----------------------|
E|-------------------------|		E|----------------------|

Verse 1

e|-----1-----0-----------3-|		e|--------3-------3----|
B|---------------------1---|		B|------1-------1------|
G|---3-----3-----0---0-----|	 x3	G|----0-------0--------|
D|-0-----0-----0-----------|		D|--3-------3----------|
A|-----------------3-------|		A|---------------------|
E|-------------------------|		E|---------------------|

e|-----1-----0-----------3-|		e|--------3--------3-------0-|
B|---------------------1---|		B|------1--------1-------1---|
G|---3-----3-----0---0-----|	 x3	G|----0--------0-------0-----|
D|-0-----0-----0-----------|		D|--3--------3-------2-------|
A|-----------------3-------|		A|---------------------------|
E|-------------------------|		E|---------------------------|

Chorus

e|-----1-----0-----------3-|		e|--------3--------3-------0-|
B|---------------------1---|		B|------1--------1-------1---|
G|---3-----3-----0---0-----|	 x3	G|----0--------0-------0-----|
D|-0-----0-----0-----------|		D|--3--------3-------2-------|
A|-----------------3-------|		A|---------------------------|
E|-------------------------|		E|---------------------------|

e|-----1-----0-----------3-|		e|--------3--------3-------0-|
B|---------------------1---|		B|------1--------1-------1---|
G|---3-----3-----0---0-----|	 x3	G|----0--------0-------0-----|
D|-0-----0-----0-----------|		D|--3--------3-------2-------|
A|-----------------3-------|		A|---------------------------|
E|-------------------------|		E|---------------------------|


Solo

e|-----1-----0-----------0-----1-------1-----0-----------0-----1-------|		
B|-----------------1-------------------------------1-------------------|		
G|---2-----2-----2-----2-----2-------2-----2-----2-----2-----2---2-----|		
D|-0-----0-----0-----0-----0-----0-------------------------------------|		
A|---------------------------------3-----3-----3-----3-----3-----------|		
E|---------------------------------------------------------------------|

e|-----1-----0-----------0-----1-------------0-------------------------|		
B|-----------------1-------------------3-----------2-----3-------------|		
G|---------------------------------------------------------------------|		
D|---3-----3-----3-----3-----3-------2-----2-----2-----2---------------|		
A|-1-----1-----1-----1-----1-----1-0-----0-----0-----0-----------------|		
E|---------------------------------------------------------------------|


Verse 2

e|-----1-----0-----------3-|		e|--------3-------3----|
B|---------------------1---|		B|------1-------1------|
G|---3-----3-----0---0-----|	 x3	G|----0-------0--------|
D|-0-----0-----0-----------|		D|--3-------3----------|
A|-----------------3-------|		A|---------------------|
E|-------------------------|		E|---------------------|

e|-----1-----0-----------3-|		e|--------3--------3-------0-|
B|---------------------1---|		B|------1--------1-------1---|
G|---3-----3-----0---0-----|	 x3	G|----0--------0-------0-----|
D|-0-----0-----0-----------|		D|--3--------3-------2-------|
A|-----------------3-------|		A|---------------------------|
E|-------------------------|		E|---------------------------|


Chorus

e|-----1-----0-----------3-|		e|--------3--------3-------0-|
B|---------------------1---|		B|------1--------1-------1---|
G|---3-----3-----0---0-----|	 x3	G|----0--------0-------0-----|
D|-0-----0-----0-----------|		D|--3--------3-------2-------|
A|-----------------3-------|		A|---------------------------|
E|-------------------------|		E|---------------------------|

e|-----1-----0-----------3-|		e|--------3--------3-------0-|
B|---------------------1---|		B|------1--------1-------1---|
G|---3-----3-----0---0-----|	 x3	G|----0--------0-------0-----|
D|-0-----0-----0-----------|		D|--3--------3-------2-------|
A|-----------------3-------|		A|---------------------------|
E|-------------------------|		E|---------------------------|

Solo

e|-----1-----0-----------0-----1-------1-----0-----------0-----1-------|		
B|-----------------1-------------------------------1-------------------|		
G|---2-----2-----2-----2-----2-------2-----2-----2-----2-----2---2-----|		
D|-0-----0-----0-----0-----0-----0-------------------------------------|		
A|---------------------------------3-----3-----3-----3-----3-----------|		
E|---------------------------------------------------------------------|


e|-----1-----0-----------0-----1-------1-----0-----3-----1-----0-------|		
B|-----------------1---------------------------------------------------|		
G|---------------------------------------------------------------------|		
D|---3-----3-----3-----3-----3-------2-----2-----2-----2-----2---------|		
A|-1-----1-----1-----1-----1-----1-0-----0-----0-----0-----0-----------|		
E|---------------------------------------------------------------------|

	
e|-----1-----0-----------0-----1-------1-----0-----------0-----1-------|		
B|-----------------1-------------------------------1-------------------|		
G|---2-----2-----2-----2-----2-------2-----2-----2-----2-----2---2-----|		
D|-0-----0-----0-----0-----0-----0-------------------------------------|		
A|---------------------------------3-----3-----3-----3-----3-----------|		
E|---------------------------------------------------------------------|


e|-----1-----0-----------0-----1-------------0-------------------------|		
B|-----------------1-------------------3-----------2-----3-------------|		
G|---------------------------------------------------------------------|		
D|---3-----3-----3-----3-----3-------2-----2-----2-----2---------------|		
A|-1-----1-----1-----1-----1-----1-0-----0-----0-----0-----------------|		
E|---------------------------------------------------------------------|		
	
Chorus

e|-----1-----0-----------3-|		e|--------3--------3-----0---|
B|---------------------1---|		B|------1--------1-------1---|
G|---3-----3-----0---0-----|	 x3	G|----0--------0---------2---|
D|-0-----0-----0-----------|		D|--3--------3-----------3---|
A|-----------------3-------|		A|-----------------------x---|
E|-------------------------|		E|-----------------------x---|
            
Submit corrections

comments powered by Disqus
↑ Back to top | The Script Tabs for I'm Yours. Lyrics for acoustic guitar and electric guitar. Tablatures and chords are parodies/interpretations of the original songs. You may use it for private study, scholarship, research or language learning purposes only