» » »

If You Ever Come Back Tabs (ver.1)

Artists:  A B C D E F G H I J K L M N O P Q R S T U V W X Y Z # 

If You Ever Come Back Tabs (ver.1)

The Script
Rating:
3/5 (4 votes)

Hard to play? Try these video lessons and learn fast.
                (Intro)
Best as i can figure it out, rate and comment :]

E|---------------------------------------12------12------10-----10---------|
B|----10------10-------8-----8-------------10------10-------10------10-----|
G|-------0-------0-------0-----0---------------------------------------12+-|
D|----------------------------------12+------------------------------------|
A|-10------10------10------9-----9------9------9-------9-------9-----------|
E|-------------------------------------------------------------------------|

E|---10-----10-----7-----7------------10-----10-----7-----7--------------|
B|------8------8-----8-----8-------------8------8-----8-----8------------|
G|-----------------------------7+-------------------------------7+-------|
D|-7------7------5-----5-----5------7------7------5-----5-----5----------|
A|-----------------------------------------------------------------------|
E|-----------------------------------------------------------------------|

.. and you get the idea :] 

rate and comment please!

RJ_Rock
            
Hard to play? Try these video lessons and learn fast. | Correct




comments powered by Disqus
↑ Back to top | Tablatures and chords are parodies/interpretations of the original songs. You may use it for private study, scholarship, research or language learning purposes only