>
 >
The Man I Am 1

The Man I Am 1 Guitar Tabs

The Scene Aesthetic - The Man I Am 1 chords, tabs, tablatures, lyrics

Guitar lessons | Add/correct | Request | Top 50 tabs Artists:  A B C D E F G H I J K L M N O P Q R S T U V W X Y Z 0-9

The Man I Am 1 Guitar Tabs – The Scene Aesthetic

CD, Sheet music, Poster

Do you like The Man I Am 1? Share with your friends now
TabsTabs v2
This is 99% accurate, and I watched live videos many times just to be sure. Enjoy. (:

Dsus2 [x00230]
D/B [020230]
D/G [300230]



    *Intro*


[-----------------(x6)--]-[-----------0-]-[--------------]-[--------------]
[------------3----------]-[-------------]-[--------------]-[-----------3--]
[------2----------------]-[-----2-------]-[------------2-]-[--------------]
[---0-----0-------------]-[--0-----0----]-[------0-------]-[------0-------]
[-----------------------]-[-------------]-[--------------]-[--------------]
[-----------------------]-[-------------]-[---3-----3----]-[---3-----3----]




Everything you do, makes me fall in love with you.
(Dsus2)            (D/B)

I fall a little harder, each and every day.
(D/G)                                     (Dsus2)

And it hurts, so bad, to know that what we had is over,
(Dsus2)                          (D/B)

But I'll still treasure every letter that you sent.
              (D/G)                             (Dsus2)

*Chorus*

Look in my eyes, tell me that I lie
(D/G)                             (Dsus2)

Cause I've never been so sure of anything in my life.
            (D/G)                                   (Dsus2)

And I told you that I loved you once...


[-------------------------]
[------------2------------]
[---------------2-----2---]
[------0-----------0------]
[---2-----2---------------]
[-------------------------]


And I meant every word I said...


[-------------------------]
[------------3------------]
[---------------2-----2---]
[------0-----------0------]
[-------------------------]
[---3-----3---------------]


And I will love you 'til the...


[-------------------------]
[------------2------------]
[---------------2-----2---]
[------0-----------0------]
[---0-----0---------------]
[-------------------------]


Day that I am dead.
(Dsus2)



                  (Dsus2)
[-----(x6)------]   [0]
[------------3--]   [3]
[------2--------]   [2]
[---0-----0-----]   [0]
[---------------]   [0]
[---------------]   [x]



I spent the last two years, doing everything I could, to keep you happy
(Dsus2)                           (D/B)                           (D/G)

You meant everything to me.
(Dsus2)

And I'll always remember, the countless times we layed in bed
                (Dsus2)          (D/B)

You sleeping by my side. I think about that almost every night.
(D/G)                      (D/G)


Everything you do, makes me fall in love with you.
(Dsus2)            (D/B)

         (D/G)                                  (Dsus2)

I know you stopped crying and I'm, so glad that you moved on,
(Dsus2)                               (D/B)

But this heart still hasn't set sail it appears.
        (D/G)                               (Dsus2)

*Repeat chorus*


*Solo*


[0]-----[0]-----[0]----[0]
[3]-----[2]-----[3]----[3]
[2]-----[2]-----[2]----[2]
[0]-----[0]-----[0]----[0]
[0]-----[2]-----[0]----[0]
[x]-----[x]-----[3]----[x]


And I told you that I loved you once...


[-------------------------]
[------------2------------]
[---------------2-----2---]
[------0-----------0------]
[---2-----2---------------]
[-------------------------]



And I meant every word I said...


[------------------------[0]
[------------3-----------[3]
[---------------2--------[2]
[------0-----------0-----[0]
[------------------------[0]
[---3-----3--------------[x]








And I will love you 'til the...


[-------------------------]
[------------2------------]
[---------------2-----2---]
[------0-----------0------]
[---0-----0---------------]
[-------------------------]


Day that I am dead.
(Dsus2)





Comments


Popular The Scene Aesthetic tabs & chords
Alamo Is No Place For Dancing 1 Chords
Heavy Lies The Crown 1 Chords
Love Through Postcards Chords
Beauty In The Breakdown 2 Tabs
Heavy Lies The Crown 1 Tabs
Talk About Love Tabs
The Alamo Is No Place For Dancing Tabs
The Alamo Is No Place For Dancing 2 Tabs
To The Steadfast Intro Tabs
Heavy Lies The Crown Ukulele


Song lyrics



↑ Back to top | Tablatures and chords are parodies/interpretations of the original songs. You may use it for private study, scholarship, research or language learning purposes only
© 2014 AZChords.com Contact us | Privacy policy | DMCA | Add/correct tabs | Request tabs | Top 50 tabs