>
 >
The Man I Am

The Man I Am Guitar Tabs

The Scene Aesthetic - The Man I Am chords, tabs, tablatures, lyrics

Guitar lessons | Add/correct | Request | Top 50 tabs Artists:  A B C D E F G H I J K L M N O P Q R S T U V W X Y Z 0-9

The Man I Am Guitar Tabs – The Scene Aesthetic

CD, Sheet music, Poster

Do you like The Man I Am? Share with your friends now
TabsTabs v2
This is how i saw Andrew play it when i saw them live.
This is my third tab i think so i hope its good.
I believe that this is pretty darn accurate so i hope you like it
(:

Capo 2nd

intro
|-------------------------------------------------------0-----|
|-------3-------3-------3-------3-------3-------3-------------|
|---2-------2-------2-------2-------2-------2-------2-------2-| X2
|-0---0---0---0---0---0---0---0---0---0---0---0---0---0---0---|
|-------------------------------------------------------------|
|-------------------------------------------------------------|

|-----------------------------------------------------------0-|
|-------------------------------------------------------3-----|
|-------2-------2-------2-------2-------2-------2-------------|
|---0-------0-------0-------0-------0-------0-------0---------|
|-------------------------------------------------------------|


|-3---3---3---3---3---3---3---3---3---3---3---3---3---3---3---|

|-------------------------------------------------------0-----|
|-------3-------3-------3-------3-------3-------3-------------|
|---2-------2-------2-------2-------2-------2-------2-------2-|
|-0---0---0---0---0---0---0---0---0---0---0---0---0---0---0---|
|-------------------------------------------------------------|
|-------------------------------------------------------------|

|-----------------------------------------------------------0--0-|
|-------------------------------------------------------3------3-|
|-------2-------2-------2-------2-------2-------2--------------2-|
|---0-------0-------0-------0-------0-------0-------0----------0-|
|--------------------------------------------------------------0-|
|-3---3---3---3---3---3---3---3---3---3---3---3---3---3---3----0-|

verse1
|0---0---0---0|
|3---3---3---3|
|2---2---2---2|X2
|0---0---0---0|
|0---0---2---0|
|0---3---x---0|

Chorus
|0---0---0---0|
|3---3---3---3|
|2---2---2---2|
|0---0---0---0|
|0---2---0---2|
|3---x---3---x|

(i told you that i loved you once...)
|---------------------------------------------------------------------0-|
|------3-------------3-------------3-------------3------------3-------3-|
|---0----0--0-----0----0--0-----0----0--0-----0----0--0----0----0--0--0-|
|------------------------------------------0---------0----------------0-|
|--------------0---------0---2---------2------------------------------2-|
|-3--------3---------------------------------------------3--------3---x-|

|-------------------------------------------------------0--0-|
|-------3-------3-------3-------3-------3-------3----------3-|
|---2-------2-------2-------2-------2-------2-------2------2-| 
|-0---0---0---0---0---0---0---0---0---0---0---0---0---0----0-|
|----------------------------------------------------------x-|
|----------------------------------------------------------x-|

verse2
|0---0---0---0|
|3---3---3---3|
|2---2---2---2|X2
|0---0---0---0|
|0---0---2---0|
|0---3---x---0|

Chorus
|0---0---0---0|
|3---3---3---3|
|2---2---2---2|
|0---0---0---0|
|0---2---0---2|
|3---x---3---x|

(i told you that i loved you once...)
|---------------------------------------------------------------------0-|
|------3-------------3-------------3-------------3------------3-------3-|
|---0----0--0-----0----0--0-----0----0--0-----0----0--0----0----0--0--0-|
|------------------------------------------0---------0----------------0-|
|--------------0---------0---2---------2------------------------------2-|
|-3--------3---------------------------------------------3--------3---x-|

interlude thingey. (guitar only, no singing)
|0----0----0----0----0----0----0----0--|
|3----3----3----3----3----3----3----3--|
|2----2----2----2----2----2----2----2--|
|0----0----0----0----0----0----0----0--|
|2----0----0----0----2----0----0----0--|
|0----0----3----0----0----0----3----0--|
|0----0----0----0----0----0----0----0--|

|0---0---0---0|
|3---3---3---3|
|2---2---2---2|
|0---0---0---0|
|0---2---0---2|
|3---x---3---x|

(i told you that i loved you once and i ment every word i said)
|------------------------------------------0-|
|------3-------------3-------------3-------3-|
|---0----0--0-----0----0--0-----0----0--0--2-|
|------------------------------------------0-|
|--------------0---------0---2---------2---0-|
|-3--------3-------------------------------x-|

(and i will love you till the day that i am dead)
|-------------0------------------------0-|
|------3------3---------3--------------3-|
|---0----0--0-2------------2-----------2-|
|-------------0---------------------0--0-|
|-------------x------------------0-----x-|
|-3--------3--x-------3-------2--------x-|





Comments


Popular The Scene Aesthetic tabs & chords
Come What May 2 Chords
Grace Looks Back Chords
Heavy Lies The Crown 1 Chords
Never Gonna Let This Go Chords
Dear Time Traveller Tabs
Don't Be That Note Tabs
Humans Intro 1 Tabs
Heavy Lies The Crown Ukulele
Humans Ukulele
Never Gonna Let This Go Ukulele


Song lyrics



↑ Back to top | Tablatures and chords are parodies/interpretations of the original songs. You may use it for private study, scholarship, research or language learning purposes only
© 2014 AZChords.com Contact us | Privacy policy | DMCA | Add/correct tabs | Request tabs | Top 50 tabs