» » »

The Scene Aesthetic, Love Story Tabs (ver.1)

Artists:  A B C D E F G H I J K L M N O P Q R S T U V W X Y Z # 

Love Story Tabs (ver.1)

The Scene Aesthetic Tabs
 Rating:
4.6/5 (9 votes)
Love Story lessons Tabs too difficult? Try these video lessons and learn fast
1
                at some parts they have 2 guitars going. mostly one through out the whole song
though. you can figure the strumming its nto hard at all

intro
e|---0-0------0-0------0-0------0-0------0-0------0-0------0-0------0-0----|
B|----3-3-3----3-3-3----3-3-3----3-3-3----3-3-3----3-3-3----3-3-3----3-3-3-|
G|--2----2---2----2---2----2---2----2---2----2---2----2---2----2---2----2--|
D|-4--------4--------2--------2--------------------------------------------|
A|-------------------------------------2--------2--------------------------|
E|-------------------------------------------------------3--------3--------|

verse guitar 1(play twice)
e|---0-0------0-0------0-0------0-0------0-0------0-0------0-0----0-|
B|----3-3-3----3-3-3----3-3-3----3-3-3----3-3-3----3-3-3----3-3-3-3-|
G|--2----2---2----2---2----2---2----2---2----2---2----2---2----2--2-|
D|-4--------4--------2--------2-----------------------------------0-|
A|-------------------------------------2--------2-----------------0-|
E|-------------------------------------------------------3--------3-|

verse guitar 2
e|0-----0-----0-----0-----0-----0-----0-----0--|
B|3-----3-----3-----3-----3-----3-----3-----3--|
G|2-----2-----4-----2-----2-----2-----4-----2--|
D|0-----0-----4-----0-----0-----0-----4-----2--|
A|x-----0-----2-----0-----x-----0-----2-----0--|
E|x-----3-----x-----3-----x-----3-----x-----x--|

pre-chorus(i think only 1 guitar)play twice
e|-0--0--0-|
B|-3--3--3-|
G|-2--2--4-|
D|-0--2--4-|
A|-0--0--2-|
E|-3--x--x-|

chorus
e|-0--0--0--0--|
B|-3--3--3--3--|
G|-2--2--4--2--|
D|-0--2--4--0--|
A|-0--0--2--0--|
E|-x--x--x--3--|

post chorus
e|---0-0------0-0----|
B|----3-3-3----3-3-3-|
G|--2----2---2----2--|
D|-4--------4--------|
A|-------------------|
E|-------------------|

verse 2 same but only played once
pre chorus same
chorus same but played twice

bridge play twice
e|-0-0---0-0-|
B|-3-3---3-3-|
G|-4-2---2-2-|
D|-4-0---0-2-|
A|-2-0---0-0-|
E|-x-3---x-x-|

chorus/outro play the chorus 5 times. the first time palm muted.

thats all i hope you like it.
            
Submit corrections

comments powered by Disqus
↑ Back to top | The Scene Aesthetic Tabs for Love Story. Lyrics for acoustic guitar and electric guitar. 1 Tablatures and chords are parodies/interpretations of the original songs. You may use it for private study, scholarship, research or language learning purposes only