» » »

The Scene Aesthetic, Love Story Tabs (ver.2)

Artists:  A B C D E F G H I J K L M N O P Q R S T U V W X Y Z # 

Love Story Tabs (ver.2)

The Scene Aesthetic Tabs
Rating:
0/5 (0 votes)
Love Story lessons Tabs too difficult? Try these video lessons and learn fast
                Okay, the tab on here is pretty accurate, but the Intro is wrong. I figured I'd 
put my version up :3


Tuning: Half-step down

Intro
e|---0-0------0-0------0-0------0-0---------0--------0--------0--------0---|
B|--3-3-3-3--3-3-3-3----3-3-3----3-3-3---3-3-3----3-3-3----3-3-3----3-3-3--|
G|-------2--------2---0----0---0----0---2-2---2--2-2---2--2-2---2--2-2---2-|
D|-0--------0--------0--------0--------------------------------------------|
A|-------------------------------------2--------2--------------------------|
E|-------------------------------------------------------3--------3--------|

Verse Guitar 1(play twice)
e|---0-0------0-0------0-0------0-0---------0--------0--------0-----0---0--|
B|--3-3-3-3--3-3-3-3----3-3-3----3-3-3---3-3-3----3-3-3----3-3-3----3---3--|
G|-------2--------2---0----0---0----0---2-2---2--2-2---2--2-2---2---2---2--|
D|-0--------0--------0--------0-------------------------------------0---0--|
A|-------------------------------------2--------2--------------------------|
E|-------------------------------------------------------3--------3-3---3--|

Verse Guitar 2
e|0-----0-----0-----0-----0-----0-----0-----0--|
B|3-----3-----3-----3-----3-----3-----3-----3--|
G|2-----2-----4-----2-----2-----2-----4-----2--|
D|0-----0-----4-----0-----0-----0-----4-----2--|
A|x-----0-----2-----0-----x-----0-----2-----0--|
E|x-----3-----x-----3-----x-----3-----x-----x--|

Pre-Chorus
e|-0--0--0-|
B|-3--3--3-|
G|-2--2--4-|
D|-0--2--4-|
A|-0--0--2-|
E|-3--x--x-|

Chorus
e|-0--0--0--0--|
B|-3--3--3--3--|
G|-2--2--4--2--|
D|-0--2--4--0--|
A|-0--0--2--0--|
E|-x--x--x--3--|

Post Chorus
e|---0-0------0-0----|
B|----3-3-3----3-3-3-|
G|--2----2---2----2--|
D|-4--------4--------|
A|-------------------|
E|-------------------|

Bridge (Play twice)
e|-0-0---0-0-|
B|-3-3---3-3-|
G|-4-2---2-2-|
D|-4-0---0-2-|
A|-2-0---0-0-|
E|-x-3---x-x-|


Enjoy!
            
Submit corrections

comments powered by Disqus
↑ Back to top | The Scene Aesthetic Tabs for Love Story. Lyrics for acoustic guitar and electric guitar. Tablatures and chords are parodies/interpretations of the original songs. You may use it for private study, scholarship, research or language learning purposes only