» » »

The Rakes, Strasbourg Tabs (ver.1)

Artists:  A B C D E F G H I J K L M N O P Q R S T U V W X Y Z # 

Strasbourg Tabs (ver.1)

The Rakes Tabs
Rating:
0/5 (0 votes)
Strasbourg lessons Tabs too difficult? Try these video lessons and learn fast
                -------------------------------------------------------------------------------
-------------------------------------------------------------------------------

Tuning: Standard (eBGDAE)

I've seen so many versions of this.. But they're like.. Only almost correct!

(There are two versions - One w/ slight distortion, and another w/o distorion)

Intro
e|-------------------------------------|
B|-------------------------------------|
G|--4444444444444444-5555555555555555--|
D|--5555555555555555-5555555555555555--|    X4
A|-------------------------------------|
E|-------------------------------------|

Verse
e|-------------------------------------|
B|-------------------------------------|
G|--4444444444444444-5555555555555555--|
D|--5555555555555555-5555555555555555--|    X4
A|-------------------------------------|
E|-------------------------------------|


Chrous
e|-------------------------------|
B|-------------------------------|
G|--7-7--------------------------|
D|--7-7---3-3-3---5-5-5---3-3----|   X3
A|--5-5---3-3-3---5-5-5---3-3----|
E|--------1-1-1---3-3-3---1-1----|

e|--------------------------------|
B|--------------------------------|
G|--7-7-------------------------7-|
D|--7-7---3-3-3---5-5-5---3-3---7-|
A|--5-5---3-3-3---5-5-5---3-3---5-|
E|--------1-1-1---3-3-3---1-1-----|

(little drum solo)


Verse
e|-------------------------------------|
B|-------------------------------------|
G|--4444444444444444-5555555555555555--|
D|--5555555555555555-5555555555555555--|    X6
A|-------------------------------------|
E|-------------------------------------|


Chrous
e|-------------------------------|
B|-------------------------------|
G|--7-7--------------------------|
D|--7-7---3-3-3---5-5-5---3-3----|   X3
A|--5-5---3-3-3---5-5-5---3-3----|
E|--------1-1-1---3-3-3---1-1----|

e|--------------------------------|
B|--------------------------------|
G|--7-7-------------------------7-|
D|--7-7---3-3-3---5-5-5---3-3---7-|
A|--5-5---3-3-3---5-5-5---3-3---5-|
E|--------1-1-1---3-3-3---1-1-----|

(Little drum solo again)


Chrous
e|-------------------------------|
B|-------------------------------|
G|--7-7--------------------------|
D|--7-7---3-3-3---5-5-5---3-3----|   X3
A|--5-5---3-3-3---5-5-5---3-3----|
E|--------1-1-1---3-3-3---1-1----|

e|--------------------------------|
B|--------------------------------|
G|--7-7-------------------------7-|
D|--7-7---3-3-3---5-5-5---3-3---7-|
A|--5-5---3-3-3---5-5-5---3-3---5-|
E|--------1-1-1---3-3-3---1-1-----|

(Another drum solo)


Verse 4
e|-------------------------------------|
B|-------------------------------------|
G|--4444444444444444-5555555555555555--|
D|--5555555555555555-5555555555555555--|    X6
A|-------------------------------------|
E|-------------------------------------|

end on:

G|--5--
D|--5--


Voila! As simple as that!

(The bass is even easier.)

xxx
            
Submit corrections

comments powered by Disqus
↑ Back to top | The Rakes Tabs for Strasbourg. Lyrics for acoustic guitar and electric guitar. Tablatures and chords are parodies/interpretations of the original songs. You may use it for private study, scholarship, research or language learning purposes only