» » »

Strasbourg Bass tabs (ver.1)

Artists:  A B C D E F G H I J K L M N O P Q R S T U V W X Y Z # 

Strasbourg Bass tabs (ver.1)

The Rakes
Rating:
4/5 (3 votes)

Hard to play? Try these video lessons and learn fast.
                
The Rakes



     INTRO / VERSE

     0:13

G--------------------------------------------------------------------------|
D--------------------------------------------------------------------------|
A--------------------------------------------------------------------------|
E--3-3-3-3-3-3-3-3-3-3-3-3-3-3-3-3--8-8-8-8-8-8-8-8-8-8-8-8-8-8-8-8--------|

G--------------------------------------------------------------------------|
D--------------------------------------------------------------------------|
A--------------------------------------------------15-15-15-15-15-15-15-15-|
E--15-15-15-15-15-15-15-15-15-15-15-15-15-15-15-15-------------------------|

G--------------------------------------------------------------------------|
D--------------------------------------------------------------------------|
A--15-15-15-15-15-15-15-15-------------------------------------------------|
E--------------------------------------------------------------------------|


    2nd VERSE

    0:23

G-------------------------------------------------------------------------|
D-------------------------------------------------------------------------|
A-------------------------------------------------------------------------|
E--3-3-3-3-3-3-3-3-3-3-3-3-3-3-3-3--8-8-8-8-8-8-8-8-8-8-8-8-8-8-8---------|

G-------------------------------------------------------------------------|
D-------------------------------------------------------------------------|
A-------------------------------------------------------------------------|
E----15-15-15-15-15-15-15-15-15-15-15-15-15-15-15-15--8-8-8-8-8-8-8-8-8-8-|

G-------------------------------------------------------------------------|
D-------------------------------------------------------------------------|
A-------------------------------------------------------------------------|
E--8-8-8-8-8-8--3-3-3-3-3-3-3-3-3-3-3-3-3-3-3-3--8-8-8-8-8-8-8-8-8-8-8-8--|

G-------------------------------------------------------------------------|
D-------------------------------------------------------------------------|
A-----------------------------------------------------------15-15-15-15---|
E--8-8-8-8--15-15-15-15-15-15-15-15-15-15-15-15-15-15-15-15---------------|

G-------------------------------------------------------------------------|
D-------------------------------------------------------------------------|
A--15-15-15-15-15-15-15-15-15-15-15-15------------------------------------|
E-------------------------------------------------------------------------|


    CHORUS

    0:45

G---------------------------------------------------------|
D---------------------------------------------------------|    X 3
A--5---5--------------------------------------------------|
E---------1-1-1--3-3-3--1-1-3-----------------------------|

G---------------------------------------------------------|
D---------------------------------------------------------|
A--5---5-----------------------5--------------------------|
E---------1-1-1--3-3-3--1-1-3-----------------------------|

    INTRO / VERSE

    0:58


    2nd VERSE

    1:08


    CHORUS  X 2

    1:29


    BRIDGE

    1:58

G--------------------------------------------------------------------------|
D--------------------------------------------------------------------------|
A--------------------------------------------------------------------------|
E--3-3-3-3-3-3-3-3-3-3-3-3-3-3-3-3--8-8-8-8-8-8-8-8-8-8-8-8-8-8-8-8--------|

G--------------------------------------------------------------------------|
D--------------------------------------------------------------------------|
A--------------------------------------------------15-15-15-15-15-15-15-15-|
E--15-15-15-15-15-15-15-15-15-15-15-15-15-15-15-15-------------------------|

G--------------------------------------------------------------------------|
D--------------------------------------------------------------------------|
A--15-15-15-15-15-15-15-15-------------------------------------------------|
E--------------------------------------------------------------------------|


    OUTRO

    2:09

G-------------------------------------------------------------------------|
D-------------------------------------------------------------------------|
A-------------------------------------------------------------------------|
E--3-3-3-3-3-3-3-3-3-3-3-3-3-3-3-3--8-8-8-8-8-8-8-8-8-8-8-8-8-8-8---------|

G-------------------------------------------------------------------------|
D-------------------------------------------------------------------------|
A-------------------------------------------------------------------------|
E----15-15-15-15-15-15-15-15-15-15-15-15-15-15-15-15--8-8-8-8-8-8-8-8-8-8-|

G-------------------------------------------------------------------------|
D-------------------------------------------------------------------------|
A-------------------------------------------------------------------------|
E--8-8-8-8-8-8--3-3-3-3-3-3-3-3-3-3-3-3-3-3-3-3--8-8-8-8-8-8-8-8-8-8-8-8--|

G-------------------------------------------------------------------------|
D-------------------------------------------------------------------------|
A-------------------------------------------------------------------------|
E--8-8-8-8--15-15-15-15-15-15-15-15-15-15-15-15-15-15-15-15--8------------|
            
Hard to play? Try these video lessons and learn fast. | Correct




comments powered by Disqus
↑ Back to top | Tablatures and chords are parodies/interpretations of the original songs. You may use it for private study, scholarship, research or language learning purposes only