» » »

Strasbourg Tabs (ver.3)

Artists:  A B C D E F G H I J K L M N O P Q R S T U V W X Y Z # 

Strasbourg Tabs (ver.3)

The Rakes
Rating:
4/5 (2 votes)

Hard to play? Try these video lessons and learn fast.
                I've looked at all the versions on the site and they are all wrong,
so i decided to tab this myself...here goes.. please be nice im only 13

Verse (Play Four Times)

e-------------|
B-------------|
G-------------|
D-9--9--9--9--|  x4
A-10-10-10-10-|
E-------------|

e-------------|
B-------------|
G-------------|
D-9--9--9--9--|  x4
A-10-10-10-10-|
E-------------|

Chorus (the rhythm is easy to figure out)

e----------------------------------|
B----------------------------------|
G---7--7---3--3---5--5---3--3------|
D---7--7---3--3---5--5---1--1------|
A---5--5---1--1---3--3---1--1------|
E----------------------------------|

Drums...

Verse (Play Four Times)

e-------------|
B-------------|
G-------------|
D-9--9--9--9--|  x4
A-10-10-10-10-|
E-------------|

e-------------|
B-------------|
G-------------|
D-9--9--9--9--|  x4
A-10-10-10-10-|
E-------------|

Chorus (the rhythm is easy to figure out)

e----------------------------------|
B----------------------------------|
G---7--7---3--3---5--5---3--3------|
D---7--7---3--3---5--5---1--1------|
A---5--5---1--1---3--3---1--1------|
E----------------------------------|

Drums...

Chorus (the rhythm is easy to figure out)

e----------------------------------|
B----------------------------------|
G---7--7---3--3---5--5---3--3------|
D---7--7---3--3---5--5---1--1------|
A---5--5---1--1---3--3---1--1------|
E----------------------------------|

Eins, Zwei, Drei, Vier!!

Verse (Play Four Times)

e-------------|
B-------------|
G-------------|
D-9--9--9--9--|  x4
A-10-10-10-10-|
E-------------|

e-------------|
B-------------|
G-------------|
D-9--9--9--9--|  x4
A-10-10-10-10-|
E-------------|

Enjoy!!!!!!!
            
Hard to play? Try these video lessons and learn fast. | Correct




comments powered by Disqus
↑ Back to top | Tablatures and chords are parodies/interpretations of the original songs. You may use it for private study, scholarship, research or language learning purposes only