» » »

Yellow Sun Tabs (ver.2)

Artists:  A B C D E F G H I J K L M N O P Q R S T U V W X Y Z # 

Yellow Sun Tabs (ver.2)

The Raconteurs
Rating:
0/5 (0 votes)

Hard to play? Try these video lessons and learn fast.
                Yellow Sun
The Raconteurs 

Intro: Both Guitars


|-------x-x-2-2-2-2| might sound better if you hit all strings on the D
|-------x-x-3-3-0-3| Sometime Hit D Faster And More
|-2-2-2-x-x-2-2-2-2|
|-2-2-2-x-x-0-0-0-0|  x 4
|-0-0-0------------|
|------------------|


Verse's

|-------x-x-2-2-2-2|
|-------x-x-3-3-0-3|
|-2-2-2-x-x-2-2-2-2|
|-2-2-2-x-x-0-0-0-0| x 4
|-0-0-0------------|
|------------------|

|-3-3-3-x-x---------|
|-0-0-0-x-x-3-3-3-3-|
|-0-0-0-x-x-0-0-0-0-|
|-0-0-0-x-x-2-2-2-2-| x 1
|-2-2-2-----3-3-3-3-|
|-3-3-3-------------|

|-------x-x-2-2-2-2|
|-------x-x-3-3-0-3|
|-2-2-2-x-x-2-2-2-2|
|-2-2-2-x-x-0-0-0-0| x 2
|-0-0-0------------|
|------------------|

Break 

|-------------|     |-------------|
|-------------|     |-------------|
|-------------|     |-------------|
|-------------| x1  |-------------| x1
|-2-4-5-7-5-4-|     |-2-4-5-7-9-7-|
|-------------|     |-------------|


Intro 
Verse 


Chours
|----------------------------------
|----------------------------------
|-5-5-5-5-5-5-5-5--9-9-9-9-9-9-9-9-
|-5-5-5-5-5-5-5-5--9-9-9-9-9-9-9-9-  x 2 
|-3-3-3-3-3-3-3-3--7-7-7-7-7-7-7-7-
|----------------------------------

|--------------------3-3-3-3-3-3-3-3------------------|
|--------------------0-0-0-0-0-0-0-0------------------|
|-5-5-5-5-5-5-5-5-5--0-0-0-0-0-0-0-0------------------|
|-5-5-5-5-5-5-5-5-5--0-0-0-0-0-0-0-0--7-7-7-7-7-7-7-7-|
|-3-3-3-3-3-3-3-3-3--2-2-2-2-2-2-2-2--7-7-7-7-7-7-7-7-|
|--------------------3-3-3-3-3-3-3-3--5-5-5-5-5-5-5-5-|


Break x2
Intro x2
Verse x1
Chorse x2
Break x2
Intro x2 
Verse x1 and slowly fade at the end
            
Hard to play? Try these video lessons and learn fast. | Correct




comments powered by Disqus
↑ Back to top | Tablatures and chords are parodies/interpretations of the original songs. You may use it for private study, scholarship, research or language learning purposes only