» » »

The Raconteurs, Top Yourself Tabs (ver.3)

Artists:  A B C D E F G H I J K L M N O P Q R S T U V W X Y Z # 

Top Yourself Tabs (ver.3)

The Raconteurs Tabs
 Rating:
4/5 (4 votes)
Top Yourself lessons Tabs too difficult? Try these video lessons and learn fast
                Top Yourself
The Raconteurs
Album : Consolers of The Lonely


Two guitars on this song. I'm proposing standard tuning for both, since that's what they 
on stage.
It will sound off from the record, it seems they play it with their guitars tuned down 
half-note.

The electric parts are played with a bottleneck but be careful, you have to only hit the 
strings

metionned, otherwise it'll just sound off.

I didn't do the little acoustic bits yet, I'll work on those later.

Any comments, good or bad will be appreciated!


VERSE :

Acoustic:

-3--3-3-3-3--1-1-1-1----|
-3--3-3-3-3--3-3-1-1----|
-4--4-4-4-4--3-3-2-2----|
-5--5-5-5-5--3-3-3-3----|
-5--5-5-5-5--1-1-3-3----|   3 times
-3--3-3-3-3------1-1----|

then :

------------------|
------------------|
-1-2-1-2-1-2-1-2--|
-1-3-1-3-1-3-1-3--|
-1-3-1-3-1-3-1-3--|
-1-1-1-1-1-1-1-1--|


Electric (with slide) :

-----------------------|
--0--5/3p0--3-3/10-----|
--0--5/3p0--3-3/10-----|
--0--5/3p0--3-3/10-----|
-----------------------|
-----------------------|

then :

-----------------------|
-7/10-7/10-7/10-7/10---|
-7/10-7/10-7/10-7/10---|
-7/10-7/10-7/10-7/10---|
-----------------------|
-----------------------|


CHORUS:

Acoustic :

GGGGG  G FF D x3

then

---------------------|
-1-1-1-1-1-1-1-1-----|
-0-0-0-0-0-0-0-0-----|
-0-2-0-2-0-2-0-2-----|
-0-3-0-3-0-3-0-3-----|
---------------------|

Electric :

-------------------------------------------|
-/12-12-12-12-12--12/10-10/7---------------|
-/12-12-12-12-12--12/10-10/7---------------|
-/12-12-12-12-12--12/10-10/7---------------|
-------------------------------------------|
-------------------------------------------|

then

-------------------------------------------|
-3/5-3/5-3/5-3/5---------------------------|
-3/5-3/5-3/5-3/5---------------------------|
-3/5-3/5-3/5-3/5---------------------------|
-------------------------------------------|
-------------------------------------------|


BREAK (electric and acoustic)

-------------------------------------------|
-------------------------------------------|
-------------------------------------------|
--5-3------5-------------------------------|
-------3h5---5-3---------------------------|
-----------------3-------------------------|


Acoustic

--2---2---2---2--------------------------------|
--3---3---3---3--------------------------------|
--2---2---2---2---1-2-1-2-1-2-1-2--------------|
--0---0---0---0---1-3-1-3-1-3-1-3--------------|
------------------1-3-1-3-1-3-1-3--------------|
------------------1-1-1-1-1-1-1-1--------------|

Electric

-------------------------------------------|
--/7-7-7-7-7-7-7-7-7---7/10-7/10-7/10-7/10-|
--/7-7-7-7-7-7-7-7-7---7/10-7/10-7/10-7/10-|
--/7-7-7-7-7-7-7-7-7---7/10-7/10-7/10-7/10-|
-------------------------------------------|
-------------------------------------------|


ACOUSTIC BREAK (not done, mess around with G pentatonic)

VERSE

CHORUS
            
Submit corrections

comments powered by Disqus
↑ Back to top | The Raconteurs Tabs for Top Yourself. Lyrics for acoustic guitar and electric guitar. Tablatures and chords are parodies/interpretations of the original songs. You may use it for private study, scholarship, research or language learning purposes only