>
 >
Together

Together Guitar Tabs

The Raconteurs - Together chords, tabs, tablatures, lyrics

Guitar lessons | Add/correct | Request | Top 50 tabs Artists:  A B C D E F G H I J K L M N O P Q R S T U V W X Y Z 0-9

Together Guitar Tabs – The Raconteurs

CD, Sheet music, Poster

Do you like Together? Share with your friends now
ChordsChords v2Chords v3Chords v4TabsUkulele
-------------------------------------------------------------------------------
-------------------------------------------------------------------------------


Tuning:EADGBe(standard)

            Intro
     E            Ab/G#       C#m          A
e|----------------------------6---6-6---------------------|
B|----------------6----6-6----7---7-7-----2----2-2--------|
G|---1----1-1-----7----7-7----8---8-8-----2----2-2--------|
D|---2----2-2-----8----8-8----8---8-8-----2----2-2----x2--|
A|---2----2-2-----8----8-8----6---6-6-----0----0-0--------|
E|---0----0-0-----6----6-6--------------------------------|

       Verse
e|----------------------------6---6-6--------------------|
B|----------------6----6-6----7---7-7-----2----2-2-------|
G|---1----1-1-----7----7-7----8---8-8-----2----2-2-------|
D|---2----2-2-----8----8-8----8---8-8-----2----2-2---x4--|
A|---2----2-2-----8----8-8----6---6-6-----0----0-0-------|
E|---0----0-0-----6----6-6-------------------------------|
      Chorus
      B
e|------------------------------------------------|
B|---4---4-4---4---4-4---2---2-2---2---2-2--------|
G|---4---4-4---4---4-4---2---2-2---2---2-2--------|
D|---4---4-4---4---4-4---2---2-2---2---2-2----x2--|
A|---2---2-2---2---2-2---0---0-0---0---0-0--------|
E|------------------------------------------------|
       still chorus
        C                  G
e|-------------------------------------------------------------|
B|------5---5-5---5--5-5---3--3-3----3--3-3------------5----3--|
G|------5---5-5---5--5-5---4--4-4----4--4-4------------5----4--|
D|------5---5-5---5--5-5---5--5-5----5--5-5--x2--then--5----5--|
A|--0-2-3---3-3---3--3-3---5--5-5----5--5-5------------3----5--|
E|-------------------------3--3-3----3--3-3-----------------3--|
       thats pretty much it except for the little difference in the verse after the 
which goes like..

e|----------------------------6---6-6----------------------------|
B|----------------6----6-6----7---7-7-----2--2--2---3--3--3------|
G|---1----1-1-----7----7-7----8---8-8-----2--2--2---4--4--4---1--|
D|---2----2-2-----8----8-8----8---8-8-----2--2--2---5--5--5---2--|
A|---2----2-2-----8----8-8----6---6-6-----0--0--0---5--5--5---2--|
E|---0----0-0-----6----6-6--------------------------3--3--3---0--|





Comments


Popular The Raconteurs tabs & chords
Level 2 Bass Tabs
Steady As She Goes 4 Bass Tabs
Salute Your Solution Chords
Broken Boy Soldier 1 Tabs
Consolers Of The Lonely 2 Tabs
It Aint Easy 1 Tabs
Steady As She Goes Tabs
Steady As She Goes 6 Tabs
These Stones Will Shout 2 Tabs
Old Enough Ukulele


Song lyrics



↑ Back to top | Tablatures and chords are parodies/interpretations of the original songs. You may use it for private study, scholarship, research or language learning purposes only
© 2014 AZChords.com Contact us | Privacy policy | DMCA | Add/correct tabs | Request tabs | Top 50 tabs