>
 >
These Stones Will Shout 1

These Stones Will Shout 1 Guitar Tabs

The Raconteurs - These Stones Will Shout 1 chords, tabs, tablatures, lyrics

Guitar lessons | Add/correct | Request | Top 50 tabs Artists:  A B C D E F G H I J K L M N O P Q R S T U V W X Y Z 0-9

These Stones Will Shout 1 Guitar Tabs – The Raconteurs

CD, Sheet music, Poster

Do you like These Stones Will Shout 1? Share with your friends now
Bass TabsTabsTabs v2Tabs v3
-------------------------------------------------------------------------------
                             These Stones Will Shout - The Raconteurs
-------------------------------------------------------------------------------

Ok this is my first tab. Sweet song, not too difficult, there are probably 
more open E's in the riffs and you are obviously entitled to throw them in 
as and when. I've tried to space it out nicely to make it easier to read, I 
thought some of the other tabs for this song were a bit squashed.
Listen to the song for proper rhythms and timing, I'm not aiming for 
perfection here!
Tuning:Standard
Guitars 1&2 (acoustic)
Intro
(palm mute this first bit)
e|---------------------------------------------------------------------------|
B|---------------------------------------------------------------------------|
G|---------------------------------------------------------------------------|
D|---------------------------------------------------------------------------|
A|--7-7-7-7-7-7-7------------------------------------------------------------|
E|--0-0-0-0-0-0-0--you get the idea keep playing this until the riff---------|

e|-------------------------------------------------0---0-|
B|-----------------5-------3-------2-------0-------0---0-|
G|-----1---2---4-----------------------------------1---1-|
D|-2-----------------------------------------------2---2-|
A|-------------------------------------------------2---2-|
E|---------------------0-------0-------0-------0---0---0-|

e|-------------------------------------------------0---0-|
B|-----------------5-------3-------2---------------2---2-|
G|-----1---2---4---------------------------2-------2---2-|
D|-2-----------------------------------------------2---2-|
A|---------------------------------------------0---0---0-|
E|---------------------0-------0-------0-----------------|

e|-------------------------------------------------0---0-|
B|-----------------5-------3-------2-------0-------0---0-|
G|-----1---2---4-----------------------------------1---1-|
D|-2-----------------------------------------------2---2-|
A|-------------------------------------------------2---2-|
E|---------------------0-------0-------0-------0---0---0-|

e|-------------------------------------2---2---2---2-|
B|-------------------------------------3---3---3---3-|
G|-----1---2---4---2---1---2---1-------2---2---2---2-|
D|-2-------------------------------2---0---0---0---0-|
A|---------------------------------------------------|
E|---------------------------------------------------|

Verse 1

      Well you've impressed me so completely
e|-------------------------------------------------0---0-|
B|-----------------5-------3-------2-------0-------0---0-|
G|-----1---2---4-----------------------------------1---1-|
D|-2-----------------------------------------------2---2-|
A|-------------------------------------------------2---2-|
E|---------------------0-------0-------0-------0---0---0-|
      I start obsessing to hear from you
e|-------------------------------------------------0---0-|
B|-----------------5-------3-------2---------------2---2-|
G|-----1---2---4---------------------------2-------2---2-|
D|-2-----------------------------------------------2---2-|
A|---------------------------------------------0---0---0-|
E|---------------------0-------0-------0-----------------|
      Whatever you do, you do sweetly
e|-------------------------------------------------0---0-|
B|-----------------5-------3-------2-------0-------0---0-|
G|-----1---2---4-----------------------------------1---1-|
D|-2-----------------------------------------------2---2-|
A|-------------------------------------------------2---2-|
E|---------------------0-------0-------0-------0---0---0-|
       It takes a lot to not take from you
e|-------------------------------------2---2---2---2-|
B|-------------------------------------3---3---3---3-|
G|-----1---2---4---2---1---2---1-------2---2---2---2-|
D|-2-------------------------------2---0---0---0---0-|
A|---------------------------------------------------|
E|---------------------------------------------------|

e|-------------------------------------------------0---0-|
B|-----------------5-------3-------2-------0-------0---0-|
G|-----1---2---4-----------------------------------1---1-|
D|-2-----------------------------------------------2---2-|
A|-------------------------------------------------2---2-|
E|---------------------0-------0-------0-------0---0---0-|

e|-------------------------------------------------0---0-|
B|-----------------5-------3-------2-------0-------0---0-|
G|-----1---2---4-----------------------------------1---1-|
D|-2-----------------------------------------------2---2-|
A|-------------------------------------------------2---2-|
E|---------------------0-------0-------0-------0---0---0-|
      You're not secure enough to tell me
e|-------------------------------------------------0---0-|
B|-----------------5-------3-------2-------0-------0---0-|
G|-----1---2---4-----------------------------------1---1-|
D|-2-----------------------------------------------2---2-|
A|-------------------------------------------------2---2-|
E|---------------------0-------0-------0-------0---0---0-|
      Your first impression of all these clowns
e|-------------------------------------------------0---0-|
B|-----------------5-------3-------2---------------2---2-|
G|-----1---2---4---------------------------2-------2---2-|
D|-2-----------------------------------------------2---2-|
A|---------------------------------------------0---0---0-|
E|---------------------0-------0-------0-----------------|
      So you'll be tricky enough to compel me
e|-------------------------------------------------0---0-|
B|-----------------5-------3-------2-------0-------0---0-|
G|-----1---2---4-----------------------------------1---1-|
D|-2-----------------------------------------------2---2-|
A|-------------------------------------------------2---2-|
E|---------------------0-------0-------0-------0---0---0-|
      To take the lead and to speak out 
e|------------------------------------|
B|------------------------------------|
G|-----1---2---4---2---1---2---1---2--|
D|-2----------------------------------|
A|------------------------------------|
E|------------------------------------|
Chorus (not exact rythm but them's the chords)
  Loud                   yeah
        B          A            E
e|-2---2---2---0---0---0---0---0---0-----|
B|-4---4---4---2---2---2---0---0---0-----|
G|-4---4---4---2---2---2---1---1---1-----|
D|-4---4---4---2---2---2---2---2---2-----|
A|-2---2---2---0---0---0---2---2---2-----|
E|-------------------------0---0---0-----|

      oooooooooh        yeah
       B           A            E
e|-2---2---2---0---0---0---0---0---0-----|
B|-4---4---4---2---2---2---0---0---0-----|
G|-4---4---4---2---2---2---1---1---1-----|
D|-4---4---4---2---2---2---2---2---2-----|
A|-2---2---2---0---0---0---2---2---2-----|
E|-------------------------0---0---0-----|

    Speak to me and don't speak softly
        B          A           E
e|-2---2---2---0---0---0---0---0---0-----|
B|-4---4---4---2---2---2---0---0---0-----|
G|-4---4---4---2---2---2---1---1---1-----|
D|-4---4---4---2---2---2---2---2---2-----|
A|-2---2---2---0---0---0---2---2---2-----|
E|-------------------------0---0---0-----|

    Talk to me and let me know
       B           A           E
e|-2---2---2---0---0---0---0---0---0-----|
B|-4---4---4---2---2---2---0---0---0-----|
G|-4---4---4---2---2---2---1---1---1-----|
D|-4---4---4---2---2---2---2---2---2-----|
A|-2---2---2---0---0---0---2---2---2-----|
E|-------------------------0---0---0-----|

    Grab hold of my shoulder and tell me
       B           A           E
e|-2---2---2---0---0---0---0---0---0-----|
B|-4---4---4---2---2---2---0---0---0-----|
G|-4---4---4---2---2---2---1---1---1-----|
D|-4---4---4---2---2---2---2---2---2-----|
A|-2---2---2---0---0---0---2---2---2-----|
E|-------------------------0---0---0-----|

    Grab hold and do not let go
       G           A           E
e|-3---3---3---0---0---0---0---0---0-----|
B|-0---0---0---2---2---2---0---0---0-----|
G|-0---0---0---2---2---2---1---1---1-----|
D|-0---0---0---2---2---2---2---2---2-----|
A|-2---2---2---0---0---0---2---2---2-----|
E|-3---3---3---------------0---0---0-----|

 Grab hold and do not let go
       G           A           E
e|-3---3---3---0---0---0---0---0---0-----|
B|-0---0---0---2---2---2---0---0---0-----|
G|-0---0---0---2---2---2---1---1---1-----|
D|-0---0---0---2---2---2---2---2---2-----|
A|-2---2---2---0---0---0---2---2---2-----|
E|-3---3---3---------------0---0---0-----|

(keep strumming the E until we fade back into...)
Verse 2

e|-------------------------------------------------0---0-|
B|-----------------5-------3-------2-------0-------0---0-|
G|-----1---2---4-----------------------------------1---1-|
D|-2-----------------------------------------------2---2-|
A|-------------------------------------------------2---2-|
E|---------------------0-------0-------0-------0---0---0-|

e|-------------------------------------------------0---0-|
B|-----------------5-------3-------2-------0-------0---0-|
G|-----1---2---4-----------------------------------1---1-|
D|-2-----------------------------------------------2---2-|
A|-------------------------------------------------2---2-|
E|---------------------0-------0-------0-------0---0---0-|

      And if you find yourself repeating
e|-------------------------------------------------0---0-|
B|-----------------5-------3-------2-------0-------0---0-|
G|-----1---2---4-----------------------------------1---1-|
D|-2-----------------------------------------------2---2-|
A|-------------------------------------------------2---2-|
E|---------------------0-------0-------0-------0---0---0-|
      Some of those incoherent sounds
e|-------------------------------------------------0---0-|
B|-----------------5-------3-------2---------------2---2-|
G|-----1---2---4---------------------------2-------2---2-|
D|-2-----------------------------------------------2---2-|
A|---------------------------------------------0---0---0-|
E|---------------------0-------0-------0-----------------|
      Just talking to yourself is cheating
e|-------------------------------------------------0---0-|
B|-----------------5-------3-------2-------0-------0---0-|
G|-----1---2---4-----------------------------------1---1-|
D|-2-----------------------------------------------2---2-|
A|-------------------------------------------------2---2-|
E|---------------------0-------0-------0-------0---0---0-|
  You might as well stick your head in the 
e|------------------------------------|
B|------------------------------------|
G|-----1---2---4---2---1---2---1---2--|
D|-2----------------------------------|
A|------------------------------------|
E|------------------------------------|

Chorus 2
 Ground                   yeah
e|-2---2---2---0---0---0---0---0---0-----|
B|-4---4---4---2---2---2---0---0---0-----|
G|-4---4---4---2---2---2---1---1---1-----|
D|-4---4---4---2---2---2---2---2---2-----|
A|-2---2---2---0---0---0---2---2---2-----|
E|-------------------------0---0---0-----|

      oooooooooh        woah
e|-2---2---2---0---0---0---0---0---0-----|
B|-4---4---4---2---2---2---0---0---0-----|
G|-4---4---4---2---2---2---1---1---1-----|
D|-4---4---4---2---2---2---2---2---2-----|
A|-2---2---2---0---0---0---2---2---2-----|
E|-------------------------0---0---0-----|

Chorus is same as last time until...
    
Guitar 3 (electric w/fuzz/heavy distortion) kicks in the last E chord there

Interlude
Guitar 3 only from here on 

                                              I feel compelled
e|---------------------------------------------------------|
B|---------------------------------------------------------|
G|---------------------------------------------------------|
D|---------------------------------------------------------|
A|--------------------------7---------------------------7--|
E|--0---3---5---7---5---3-------0---3---5---7---5---3------|

to just yell out for you              to say the words
e|--------------------------------------------------|
B|--------------------------------------------------|
G|--------------------------------------------------|
D|--------------------------10--2---5---7---10------|
A|--------------------------10--2---5---7---10------|
E|--0---3---5---7---5---3---8---0---3---5---8-------|

  that you cant bring out    but I cannot do everything for you
e|-----------------------------------------------------|
B|-----------------------------------------------------|
G|-----------------------------------------------------|
D|--2---5---7---10---7---5---2---10---7---5---2---10---|
A|--2---5---7---10---7---5---2---10---7---5---2---10---|
E|--0---3---5---8----5---3---0---8----5---3---0---8----|

           and if i don't then these stones will shout
e|--------------------------------------------------|
B|--------------------------------------------------|
G|--------------------------------------------------|
D|--2---5---7---10---2---5---7---10---7---5---2-----|
A|--2---5---7---10---2---5---7---10---7---5---2-----|
E|--0---3---5---8----0---3---5---8----5---3---0-----|

   yeah if i dont then these stones will shout
e|--------------------------------------------------|
B|--------------------------------------------------|
G|--------------------------------------------------|
D|--10---7---5---2----------------------------------|
A|--10---7---5---2----------------------------------|
E|--8----5---3---0----------------------------------|

                  yeah if I don't then these stones will shout              
e|--------------------------------------------------|
B|--------------------------------------------------|
G|--------------------------------------------------|
D|--10---2---5---7---10---2---5---7---10------------|
A|--10---2---5---7---10---2---5---7---10------------|
E|--8----0---3---5---8----0---3---5---8-------------|

this riff continues in the pattern (incase I didnt make it clear it does a 
powerchord rise up the fretboard twice and then back down twice)
The lyrics for the rest of this section are:

So if I were to just lay in silence
And see if you would take control
The stones below me would make me combat them
And they would wrestle me, pester me, mess with me
Just trying to free your soul

Outro
e|-2--------------------0----------------|
B|-4--------------------2----------------|
G|-4--------------------2----------------|
D|-4--------------------2----------------|
A|-2--------------------0----------------|
E|---------------------------------------|

Now you play the chorus twice through, however on the first time you only
play the G A E section once. On the second time through, you play it four 
times.
Well that's the song over, mail me any suggestions, comments, money :P 
jokes I don't want a lawsuit on my backside.

| /  slide up
| \  slide down
| h  hammer-on
| p  pull-off
| ~  vibrato
| +  harmonic
| x  Mute note
===============================================================================





Comments


Popular The Raconteurs tabs & chords
Consoler Of The Lonely Bass Tabs
Consolers Of The Lonely Bass Tabs
Level Chords
Together Chords
Steady As She Goes Drum Tabs
Bang Bang Tabs
Broken Boy Soldier 1 Tabs
Broken Boy Soldier 2 Tabs
Store Bought Bones Tabs
The Switch And The Spur Tabs


Song lyrics



↑ Back to top | Tablatures and chords are parodies/interpretations of the original songs. You may use it for private study, scholarship, research or language learning purposes only
© 2014 AZChords.com Contact us | Privacy policy | DMCA | Add/correct tabs | Request tabs | Top 50 tabs