» » »

The Raconteurs, Salute Your Solution Tabs (ver.3)

Artists:  A B C D E F G H I J K L M N O P Q R S T U V W X Y Z # 

Salute Your Solution Tabs (ver.3)

The Raconteurs Tabs
 Rating:
4/5 (4 votes)
Salute Your Solution lessons Tabs too difficult? Try these video lessons and learn fast
                Salute your Solution
The Raconteurs
Consolers of the Lonely

e|-x-xx--------------|
B|-x-xx--------------|
G|-x-xx--99-7--------| repeat as necesary
D|-x-xx--99-7-7-999--| (without the strumming)
A|-x-xx--77-5-7-999--|
E|-x-xx-------5-777--|


Distorted Bass riff

G|------------------|
D|------------------|
A|-----------2/5-5--|
E|--0-0--3-5--------|


e|-----|
B|-----|
G|-99--|
D|-99--|
A|-77--|
E|-----|


e|---------------------|
B|---------------------|
G|--99-----------77-99-|
D|--99-----------77-99-| repeat as necesay
A|--77-----------55-77-|
E|---------------------|

e|---------------|
B|---------------|
G|---99-7--------| repeat as necesary
D|---99-7-7-999--|
A|---77-5-7-999--|
E|--------5-777--|


e|---------------------|
B|---------------------|
G|--99-----------77-99-|
D|--99-----------77-99-| repeat as necesay
A|--77-----------55-77-|
E|---------------------|

e|-----|
B|-----|
G|--2--|
D|--2--|   Let ring
A|--0--|
E|-----|

Synth thingy

e|--6-5-3-5-3-5-6----6-5-3-5-3-5-6----6-5-3-5-3-5-6-6-6-5-3----|
B|----------------------------------------------------------5--|
G|-------------------------------------------------------------|
D|-------------------------------------------------------------|
A|-------------------------------------------------------------|
E|-------------------------------------------------------------|

e|-----------------------------------|
B|-----------------------------------|
G|-----------------------------------|
D|----------------------------5-5----| (then repeat this an octave above...
A|--------------5-----5-7-5-------7--|  figure it out)
E|--0-3-5---5-7-----7-------7--------|


e|--18-17-15-17-15-17-18---18-17-15-17-15-17-18---18-17-15-17-15-17-18-18-18-18-17-15-------|
B|------------------------------------------------------------------------------------17/0--|
G|------------------------------------------------------------------------------------------|
D|------------------------------------------------------------------------------------------|
A|------------------------------------------------------------------------------------------|
E|------------------------------------------------------------------------------------------|

Guitar with fuzz

e|---------------------------------------------------------------|
B|---------------------------------------------------------------|
G|---------------------------------------------------------------|
D|------------------------5/6-----5/6----------------------------| repeat as
A|--------------5-----5/7-----7-------7-----5/7------------------| necesary
E|--0-3-5---5/7---------------------------------7-----5/7-3br0---|

Solo

Well the solo is crazyness with whammy and fuzz on the E pentatonic scale
and it's like Mr Jack White will never do it the same ever (he never plays a song the 
twice), he just likes to
improvise and do crazyness thing that i love!

Brendan keeps repeating this part

e|---------------|
B|---------------|
G|---99-7--------|
D|---99-7-7-999--|
A|---77-5-7-999--|
E|--------5-777--|

Then it changes into this

e|-------------------|
B|-------------------|
G|------------4-77---|
D|-22----5-7--4-77---| repeat as necesary
A|-22----5-7--2-55---|
E|-00----3-5---------|

Ends with

e|------|
B|------|
G|---2--|
D|---2--| let ring
A|---0--|
E|------|

e|--------------|
B|--------------|
G|--------------|
D|--------------|
A|--------------|
E|--5-3-0-3~~~~-|

Note:

/ = Slide to note
b = Bend to note
r = Release
~ = vibrato

e|---|  you can replace  e|---|
B|---|  <---This for     B|---|
G|-9-|   this ------->   G|---|
D|-9-|  they are both E  D|-2-|
A|-7-|                   A|-2-|
E|---|                   E|-0-|
            
Submit corrections

comments powered by Disqus
↑ Back to top | The Raconteurs Tabs for Salute Your Solution. Lyrics for acoustic guitar and electric guitar. Tablatures and chords are parodies/interpretations of the original songs. You may use it for private study, scholarship, research or language learning purposes only