» » »

Many Shades Of Black Tabs (ver.1)

Artists:  A B C D E F G H I J K L M N O P Q R S T U V W X Y Z # 

Many Shades Of Black Tabs (ver.1)

The Raconteurs
Rating:
0/5 (0 votes)

Hard to play? Try these video lessons and learn fast.
                Intro
Gm Am B Am (X5)
Gm Am B (Hold)

Verse

C                       F
Go ahead, go ahead and smash it on the floor
Am                               Dm
Take whatevers left and take it with you out the door
Gm                             C
See if I cry, see if I shed a single sorry tear
Am                                                    Dm      E       F Am
I can't say that its been great, no in fact its been a wasted worried year


Chorus

Eb            F         A#   Am     Gm   F    
And everybody sees, and everyone agrees
Eb                 F              Gm                Dm
That you and I are wrong, and its been that way too long
Eb            F             A#       Am       Gm    F
Take it as it comes, and be thankful when its done
Eb                     F
Theres so many ways to act
           Gm              A#
And theres many shades of black
          Gm               A#
Theres so many shades of black
          Gm               A#
Theres so many shades of black


Verse

C                           F
Let it out, let it all out, say whats on your mind
        Am                                      Dm
You can kick and scream and shout and say things that are so unkind, Yea
Gm                            C
See if I care, see if I stand firm or if I fall
             Am                       
Cause in the back of mind, and on the tip of my tongue
       Dm     E    F  Am
Is the answer to it all


Chorus

Eb            F         A#   Am     Gm   F    
And everybody sees, and everyone agrees
Eb                 F              Gm                Dm
That you and I are wrong, and its been that way too long
Eb            F             A#       Am       Gm    F
Take it as it comes, and be thankful when its done
Eb                     F
Theres so many ways to act
           Gm              A#
And theres many shades of black
          Gm               A#
Theres so many shades of black
          Gm               A#
Theres so many shades of black


Solo

e|---------------------------------|
B|-12^13---13^14--13p11------------|
G|-----------------------12~~~~~---|
D|---------------------------------|
A|---------------------------------|
E|---------------------------------|

e|------------------13-------------|
B|--11p10-----13^-(hold)-^13-------|
G|------------------------------12-|
D|---------------------------------|
A|---------------------------------|
E|---------------------------------|

e|------------------------------------------------------|
B|--10-11-13--10-11-13-------15^18^15^18--15^18---------|
G|-------------------------------------------------12---|
D|------------------------------------------------------|
A|------------------------------------------------------|
E|------------------------------------------------------|

e|-------------------------------------------------------------------------|
B|--20^22-20^22--17^18-17^18-17---------10---/10-11-13^15--13-11--13~~~~---|
G|----------------------------------/12------------------------------------|
D|-------------------------------------------------------------------------|
A|-------------------------------------------------------------------------|
E|-------------------------------------------------------------------------|

e|-------------------------------------------------|
B|---20^22^20------18---------15-17-18-17-15-------|
G|-------------19---------17------------------17---|
D|-------------------------------------------------|
A|-------------------------------------------------|
E|-------------------------------------------------|

e|----------------------------------------21^--21^---|
B|-----15-17-18-17-20-18-20-18-20-20^----------------|
G|--17-----------------------------------------------|
D|---------------------------------------------------|
A|---------------------------------------------------|
E|---------------------------------------------------|


Chorus

Eb        F         A#   Am     Gm   F    
Everybody sees, and everyone agrees
Eb                 F              Gm                Dm
That you and I are wrong, and its been that way too long
Eb            F             A#       Am       Gm    F
Take it as it comes, and be thankful when its done
Eb                     F
Theres so many ways to act
        Gm               A#
And you cannot take it back
       Gm                A# 
No you cannot take it back
           Gm               A#           
Yes theres many shades of black
          Gm               A#
Theres so many shades of black
           Gm              A#
Yea theres many shades of black
          Gm              A#
Theres so many shades of black
          Gm              A#
Theres so many shades of black
           Gm             A#
Yea theres many shades of black
          Gm              A# 
Theres so many shades of black
           Gm              A#
Yea theres many shades of black
          Gm              A#
Theres so many shades of black

C 
   Go ahead
            
Hard to play? Try these video lessons and learn fast. | Correct




comments powered by Disqus
↑ Back to top | Tablatures and chords are parodies/interpretations of the original songs. You may use it for private study, scholarship, research or language learning purposes only