» » »

Broken Boy Soldier Tabs (ver.1)

Artists:  A B C D E F G H I J K L M N O P Q R S T U V W X Y Z # 

Broken Boy Soldier Tabs (ver.1)

The Raconteurs
Rating:
0/5 (0 votes)

Hard to play? Try these video lessons and learn fast.
                (Intro)
The Raconteurs:
Broken Boy Soldier

INTRO:

E--------12-----------12-----------12-----------12-----|
B--9s-15----15--9s-14----14--9s-13----13--9s-12----12s-|
G------------------------------------------------------|
D------------------------------------------------------|
A------------------------------------------------------|
E------------------------------------------------------|

VERSE RIFF:

e-------------------------|
B-------------------------|
G-------------------------|
D-----------5-------------|
A--5--7-7-7---7-5-7-7-----|
E-------------------------|

E--------12-----------12-----------12-----------12-----|
B--9s-15----15--9s-14----14--9s-13----13--9s-12----12s-|
G------------------------------------------------------|
D------------------------------------------------------|
A------------------------------------------------------|
E------------------------------------------------------|


LYRICS:
            
Hard to play? Try these video lessons and learn fast. | Correct




comments powered by Disqus
↑ Back to top | Tablatures and chords are parodies/interpretations of the original songs. You may use it for private study, scholarship, research or language learning purposes only