» » »

The Pretty Reckless, Panic Tabs (ver.1)

Artists:  A B C D E F G H I J K L M N O P Q R S T U V W X Y Z # 

Panic Tabs (ver.1)

The Pretty Reckless Tabs
 Rating:
4/5 (4 votes)
Panic lessons Tabs too difficult? Try these video lessons and learn fast
1
                @Lucy_Riot
-Artist: The Pretty Reckless
-Song: ‘Panic’
-Guitar Tunning: Standard

-Note: I show you the chords, but for the strumming pattern check out the song 
(Aquí os muestro los acordes, pero para saber cuantas veces tocar cada acorde y el 

Intro:

|---------------------[
|---------------------[
|------7--------------[    x 2
|--4---7---9---4------[
|--4---5---9---4------[
|--2-------7---2------[


Verse 1: ''You are driving me into manic, You can't break me out of my habits...''

|---------------------[
|---------------------[
|------7--------------[
|--4---7---9---4------[
|--4---5---9---4------[
|--2-------7---2------[

|---------------------[
|---------------------[
|------7--------------[
|--4---7---9---11-----[
|--4---5---9---11-----[
|--2-------7---9------[


Chorus: ''Baby, spare yourself (But I'm in love with you)''


|--------------------[
|--------------------[
|--7-----------------[   x2
|--7---9---4---------[
|--5---9---4---------[
|------7---2---------[

|--------------------[
|--------------------[
|--7-----------------[
|--7---9---4---3-----[
|--5---9---4---3-----[
|------7---2---1-----[

|--------------------[
|--------------------[
|--7-----------------[
|--7---9---4---------[
|--5---9---4---------[
|------7---2---------[

|---------------[
|---------------[
|---------------[
|-----4---------[
|-----4---------[
|-----2---------[


Verse 2: ''You are driving me into panic, I know that you can't understand it''

|---------------------[
|---------------------[
|------7--------------[
|--4---7---9---4------[
|--4---5---9---4------[
|--2-------7---2------[

|---------------------[
|---------------------[
|------7--------------[
|--4---7---9---11-----[
|--4---5---9---11-----[
|--2-------7---9------[

Chorus 2 : ''Baby, spare yourself (But I'm in love with you)''

|--------------------[
|--------------------[
|--7-----------------[   x2
|--7---9---4---------[
|--5---9---4---------[
|------7---2---------[

|--------------------[
|--------------------[
|--7-----------------[
|--7---9---4---3-----[
|--5---9---4---3-----[
|------7---2---1-----[

|--------------[
|--------------[
|--7-----------[
|--7---9-------[
|--5---9-------[
|------7-------[


Outro:


|----------------------------------------------[
|----------------------------------------------[
|--14---13---9---10----14---13---16---17-------[
|--x----x----x---x-----x----x----x----x--------[
|--12---11---7---8-----12---11---14---15-------[
|----------------------------------------------[

''Oh, oh, oh, woah...''

|---------------[
|---------------[
|---------------[
|-----4---------[
|-----4---------[
|-----2---------[

Chorus: ''Baby, spare yourself from all my trouble cause...''

|--------------------[
|--------------------[
|--7-----------------[   x2
|--7---9---4---------[
|--5---9---4---------[
|------7---2---------[

|--------------------[
|--------------------[
|--7-----------------[
|--7---9---4---3-----[
|--5---9---4---3-----[
|------7---2---1-----[

|--------------------[
|--------------------[
|--7-----------------[   END!!!
|--7---9---4---------[
|--5---9---4---------[
|------7---2---------[

xoxo

26/July/2011 ---> #HappyBDayMomsen Sweet 18!!!!
            
Submit corrections

comments powered by Disqus
↑ Back to top | The Pretty Reckless Tabs for Panic. Lyrics for acoustic guitar and electric guitar. 1 Tablatures and chords are parodies/interpretations of the original songs. You may use it for private study, scholarship, research or language learning purposes only