» » »

The Pretty Reckless, Only You Chords (ver.1)

Artists:  A B C D E F G H I J K L M N O P Q R S T U V W X Y Z # 

Only You Chords (ver.1)

The Pretty Reckless Tabs
Rating:
0/5 (0 votes)
Hard to play? Try these video lessons and learn fast.
                The Pretty Reckless - Only You

E | ------------------------------------- | 
B | ------------------------------------- | 
G | ------------------------------------- |  6x
D | ----------------------------------2-- | 
A | -------7-----------7--------0/1/2---- | 
E | --0-0-----6~~~-0-0---6~---3---------- | 

E5                G5
Oh boy have you seen my head
                      B5
I've lost my mind, so I forget and
E5                G5
Oh boy have you seen my heart,
                           B5
it's beating so loud, I'm falling apart and

C5   D5     G5        B5
Only you can bring me back to life
C5   D5      G5      B5
Only you can put me into right
C5    D5      G5    F#5     B5
Tell me when I can breathe again

E | ------------------------------------- | 
B | ------------------------------------- | 
G | ------------------------------------- |  2x
D | ----------------------------------2-- | 
A | -------7-----------7--------0/1/2---- | 
E | --0-0-----6~~~-0-0---6~---3---------- | 

E5              G5
Oh boy have you seen my hands
                   B5
I can't hold on, I don't understand why
E5               G5
Dear boy have you seen my soul
                         B5
It's under the ground, I'm out of control

C5   D5     G5        B5
Only you can bring me back to life
C5   D5      G5      B5
Only you can put me into right
C5    D5      G5    F#5     B5
Tell me when I can breathe again


E | ---2----------2------- | 
B | --5-5--------5-5------ | 
G | -5----(x4)--4----(x4)- | (x4)
D | ---------------------- | 
A | ---------------------- | 
E | ---------------------- | 

Say you love me, True (x7)
True

C5   D5     G5        B5
Only you can bring me back to life
C5   D5      G5      B5
Only you can put me into right
C5    D5      G5    F#5     B5
Tell me when I can breathe again

E | ------------------------------------- | 
B | ------------------------------------- | 
G | ------------------------------------- |  2x
D | ----------------------------------2-- | 
A | -------7-----------7--------0/1/2---- | 
E | --0-0-----6~~~-0-0---6~---3---------- |  


Chords :
E5 - 022xxx
G5 - 355xxx
B5 - x244xx
C5 - x355xx
D5 - x577xx
F#5 - 244xxx
            

comments powered by Disqus
↑ Back to top | The Pretty Reckless Chords for Only You. Lyrics for acoustic guitar and electric guitar. Tablatures and chords are parodies/interpretations of the original songs. You may use it for private study, scholarship, research or language learning purposes only