» » »

The Pigeon Detectives, You Know I Love You Bass tabs (ver.1)

Artists:  A B C D E F G H I J K L M N O P Q R S T U V W X Y Z # 

You Know I Love You Bass tabs (ver.1)

The Pigeon Detectives Tabs
 Rating:
4/5 (4 votes)
You Know I Love You lessons Tabs too difficult? Try these video lessons and learn fast
                
Tuning: jus the ol' E/A/D/G =)

Intro: i think the bass starts after the guitar bit is done twice..i play from the start 
tho :P here we go...(from the very start)

G|-------|-------|-------|-------|
D|-------|-------|3-3-32-|3-3-32-|
A|3-3-32-|3-3-32-|-------|-------|
E|-------|-------|-------|-------|

Verse: Play - ABCD ABCD ABCE

     A        B        C          D          E
G|--------|--------|------0-| |------00| |--------|
D|------0-|------00|333332--| |333332--| |33333-2-|
A|333332--|333332--|--------| |--------| |--------|
E|--------|--------|--------| |--------| |--------|


Chorus: (Part 1)

G|--------|--------|--------|--------|
D|33333333|22222222|00--00--|00--00--| X2
A|--------|--------|--------|--------|
E|--------|--------|--------|--------|


Verse: Play - ABCD ABCE
     A        B        C          D          E
G|--------|--------|------0-| |------00| |--------|
D|------0-|------00|333332--| |333332--| |33333-2-|
A|333332--|333332--|--------| |--------| |--------|
E|--------|--------|--------| |--------| |--------|


Chorus (Parts 1 & 2)

G|--------|--------|--------|--------|
D|33333333|22222222|00--00--|00--00--| X2
A|--------|--------|--------|--------|
E|--------|--------|--------|--------|

G|--------|---------|--------|--------|
D|--------|---------|33xx33xx|33xx33xx| X4
A|00000000|/33333333|--------|--------|
E|--------|---------|--------|--------|

G|-------|
D|0------| let ring for 4 bars
A|-------|
E|-------|

  1...2...3...4...5...6...7...8...9...10..11..12..13..14..15..16..
G|----------------------------------------------------------------|
D|-000-000-000-000-000-000-000-000-000-000-000-000-000-000-000--00|
A|3---3---3---3---3---3---3---3---3---3---3---3---3---3---3---33--|
E|----------------------------------------------------------------|


Chorus: (2nd part)

G|--------|---------|--------|--------|
D|--------|---------|33xx33xx|33xx33xx| X6
A|00000000|/33333333|--------|--------|
E|--------|---------|--------|--------|

Outro:

G|--------|---------|
D|--------|---------|
A|00000000|/33333333|
E|--------|---------|


| /  slide up
| \  slide down
| h  hammer-on
| p  pull-off
| ~  vibrato
| +  harmonic
| x  Mute note
            
Submit corrections

comments powered by Disqus
↑ Back to top | The Pigeon Detectives Bass for You Know I Love You. Lyrics for acoustic guitar and electric guitar. Tablatures and chords are parodies/interpretations of the original songs. You may use it for private study, scholarship, research or language learning purposes only