» » »

You Know I Love You Tabs (ver.1)

Artists:  A B C D E F G H I J K L M N O P Q R S T U V W X Y Z # 

You Know I Love You Tabs (ver.1)

The Pigeon Detectives
Rating:
0/5 (0 votes)

Hard to play? Try these video lessons and learn fast.
                			     You Know I Love You - Pigeon Detectives

Tuning: Standard


Intro
(guitar 1)
e|-----------------------------------------------------|
B|-----------------------------------------------------|
G|-----------------------------------------------------|
D|---------------------------333333333-2--333333333-2--|
A|--333333333-2--333333333-2---------------------------|
E|-----------------------------------------------------|


(guitar 2) 0:09
    C         C         F          F
e|---------------------------------------------|
B|------------------------------10---------10--|
G|----------9---------9------10---------10-----|
D|-------10--------10-----10---------10--------|
A|----10--------10------8----------8-----------|
E|--8---------8--------------------------------|


Chorus
    F         F/F#      Dm
e|------------------------------------|
B|--10--------10--------6-6-x-x-------|
G|--10--------10--------7-7-x-x-------|
D|--10-(x8)---10-(x8)---7-7-x-x-(x4)--|
A|--8---------7---------5-5-x-x-------|
E|------------------------------------|


Verse

e|-----------------------------------------------|
B|-----------------------------------------------|
G|------------------------10-9-10-12-10-9-10-12--|
D|--10-9-10-12-10-9-10-12------------------------|
A|-----------------------------------------------|
E|-----------------------------------------------|


e|-------------------------------------------------|
B|-------------------------------------------------|
G|------------------------10-9-10-12-10-9-10-9-10--|
D|--10-9-10-12-10-9-10-12--------------------------|
A|-------------------------------------------------|
E|-------------------------------------------------|


Chorus Part 2
    A         C          F
e|---------------------------------------|
B|-----------------------10-10-x-x-------|
G|--7---------10---------10-10-x-x-------|
D|--7-(x8)----10-(x8)----10-10-x-x-(x8)--|
A|--7---------10---------8--8--x-x-------|
E|--5---------8--------------------------|


Bridge 1 (This is the same as the above but up an octive)

    A               C                       F
e|------------------------------------------13-xx-13-xx-13-xx-13-xx--|
B|------------------------------------------13-xx-13-xx-13-xx-13-xx--|
G|--9-9-9-9-9-9-9-9-12-12-12-12-12-12-12-12-10-xx-10-xx-10-xx-10-xx--|
D|--7-7-7-7-7-7-7-7-10-10-10-10-10-10-10-10--------------------------|
A|-------------------------------------------------------------------|
E|-------------------------------------------------------------------|


Bridge 2

    Dm                  Dm
e|-------------------|-------------------|
B|--6-6-x-x-6-6-x-x--|--6-6-6-6-6-6-6-6--|
G|--7-7-x-x-7-7-x-x--|--7-7-7-7-7-7-7-7--|
D|--7-7-x-x-7-7-x-x--|--7-7-7-7-7-7-7-7--|
A|--5-5-x-x-5-5-x-x--|--5-5-5-5-5-5-5-5--|
E|-------------------|-------------------|

| /  slide up
| \  slide down
| h  hammer-on
| p  pull-off
| ~  vibrato
| +  harmonic
| x  Mute note
            
Hard to play? Try these video lessons and learn fast. | Correct




comments powered by Disqus
↑ Back to top | Tablatures and chords are parodies/interpretations of the original songs. You may use it for private study, scholarship, research or language learning purposes only