>
 >
Romantic Type

Romantic Type Guitar Tabs

The Pigeon Detectives - Romantic Type chords, tabs, tablatures, lyrics

Guitar lessons | Add/correct | Request | Top 50 tabs Artists:  A B C D E F G H I J K L M N O P Q R S T U V W X Y Z 0-9

Romantic Type Guitar Tabs – The Pigeon Detectives

CD, Sheet music, Poster

Do you like Romantic Type? Share with your friends now
Bass TabsChordsTabsTabs v2Ukulele
---------------------------------------------------------------------
              Romantic Type  The Pigeon Detectives
---------------------------------------------------------------------

Awesome Band, go buy their album when its out!

This is a revision of our first submission of this song and is more correct

Tuning: Standard

Intro
1st Guitar 
e|-77-7---------9-9--9-------|    ---12---12----12---12--|
B|-99-9---------1010-10------|    ----10----10---10---10-|
G|-99-9---------9-9--11------| x2 -----------------------|      
D|-99-9---------1111-11------|    -----------------------|
A|-77-7---------9-9--9-------|    -----------------------|
E|---------------------------|    -----------------------|
      Let ring       Let ring 

2nd Guitar
e|-----7-------------9--------|
B|-----9-------------10-------|
G|-----9 x8----------11 x8----|x2
D|-----9-------------11-------|
A|-----7-------------9--------|
E|----------------------------|

-----------------------------------------------------------------------

Verse
1st Guitar
e|-77-7---------9-9--9-------|     -9--|
B|-99-9---------1010-10------|     -10-|
G|-99-9---------9-9--11------| x2  -11-|   
D|-99-9---------1111-11------|     -11-|
A|-77-7---------9-9--9-------|     -9--|
E|---------------------------|     ----|
      Let ring       Let ring      Strum Lots, listen to the song.

2nd Guitar
e|-----7-------------9-------|     --9--|
B|-----9-------------10------|     --10-|
G|-----9 x8----------11 x8---| x2  --11-|
D|-----9-------------11------|     --11-|
A|-----7-------------9-------|     --9--|
E|---------------------------|     -----|
                                   Strum lots

-----------------------------------------------------------------------

Chorus
1st Guitar
e|--------------------------------------------------------------------|
B|-12-9---------------------------------12-9--------------------------|
G|------9-11-9----9-11-9---------8-----------9-11-9----9-11-9----9h11-|
D|-------------11--------11--11-----11--------------11--------11------|
A|--------------------------------------------------------------------|
E|--------------------------------------------------------------------|

2nd Guitar
e|---4---------7----------5-----/-7-------------------------------|
B|---5---------7----------5-----/-7-------------------------------|
G|---6---------8----------6-----/-8-------------------------------|x2
D|---6---------9----------7-----/-9-------------------------------|
A|---4---------9----------7-----/-9-------------------------------|
E|-------------7----------5-----/-7-------------------------------|
Strum first 3 chords

-----------------------------------------------------------------------

Bridge
1st Guitar
e|------------------------------------------------------------------|
B|------12----------------------12----------------------------------|
G|---11b-11r-9------9----9-11b----11r-9h11-8h9-6-4-6---------------|
D|--------------9-11---11-------------------------------------------|
A|------------------------------------------------------------------|
E|------------------------------------------------------------------|

2nd Guitar
e|----7------5------7------5-/-4-/-2--------------------------------|
B|----7------5------7------5-/-4-/-2--------------------------------|
G|----8------6------8------6-/-4-/-2--------------------------------|
D|----9------7------9------7-/-6-/-4--------------------------------|
A|----9------7------9------7-/-6-/-4--------------------------------|
E|----7------5------7------5-/-4-/-2--------------------------------|

-----------------------------------------------------------------------

Verse 2
1st Guitar
e|-7------------------------------------------------------------------|
B|-9------------------------------------------------------------------|
G|-9------------------------------------------------------------------|
D|-9------------------------------------------------------------------|
A|-7-99-77-99-77-9-99-77-99-77-7-99-77-99-77-9-99-77-99-77-7-99-77-99-|
E|--------------------------------------------------------------------|

e|--------------------------------------------------------------------|
B|--------------------------------------------------------------------|
G|--------------------------------------------------------------------|
D|--------------------------------------------------------------------|
A|-77-9-99-77-99-1111-------------------------------------------------|
E|--------------------------------------------------------------------|

2nd Guitar
e|-----7-------------9-------|     --9--|
B|-----9-------------10------|     --10-|
G|-----9 x8----------11 x8---|x3   --11-|
D|-----9-------------11------|     --11-|
A|-----7-------------9-------|     --9--|
E|---------------------------|     -----|
                                   Strum lots

-----------------------------------------------------------------------

Chorus 2
1st Guitar
e|--------------------------------------------------------------------|
B|-12-9---------------------------------12-9--------------------------|
G|------9-11-9----9-11-9---------8-----------9-11-9----9-11-9----9h11-|
D|-------------11--------11--11-----11--------------11--------11------|
A|--------------------------------------------------------------------|
E|--------------------------------------------------------------------|

2nd Guitar
e|---4---------7----------5-----/-7-------------------------------|
B|---5---------7----------5-----/-7-------------------------------|
G|---6---------8----------6-----/-8-------------------------------|x2
D|---6---------9----------7-----/-9-------------------------------|
A|---4---------9----------7-----/-9-------------------------------|
E|-------------7----------5-----/-7-------------------------------|
Strum first 3 chords

-----------------------------------------------------------------------

Bridge
1st Guitar
e|------------------------------------------------------------------|
B|------12----------------------12----------------------------------|
G|---11b-11r-9------9----9-11b----11r-9h11-8h9-6-4-6---------------|
D|--------------9-11---11-------------------------------------------|
A|------------------------------------------------------------------|
E|------------------------------------------------------------------|

2nd Guitar
e|----7------5------7------5-/-4-/-2--------------------------------|
B|----7------5------7------5-/-4-/-2--------------------------------|
G|----8------6------8------6-/-4-/-2--------------------------------|
D|----9------7------9------7-/-6-/-4--------------------------------|
A|----9------7------9------7-/-6-/-4--------------------------------|
E|----7------5------7------5-/-4-/-2--------------------------------|

-----------------------------------------------------------------------

Solo
1st Guitar
e|------------------------------------------------------------------|
B|------------------------------------------------------17-------17-|
G|-8-9---9h11-9-9h11-9-11-9-11b-11r-9-11b-11r-9---16-18----16-18----|
D|------------------------------------------------------------------|
A|------------------------------------------------------------------|
E|------------------------------------------------------------------|

e|------------------------------------------------------------------|
B|-------17-------17------------------------------------------------|
G|-16-18----14-16----14-13-11-13-14-13-11-9-11-9-14-13-11-9-11------|
D|------------------------------------------------------------------|
A|------------------------------------------------------------------|
E|------------------------------------------------------------------|

e|-------------------------------------------------------------------|
B|-------------------------------------------------------------------|
G|-13-14-11-13-9-11-8-9-6-8-4-6-2-4-1-2-4-44-44-6-66-66-8-88-88-9-99-|
D|-------------------------------------------------------------------|
A|-------------------------------------------------------------------|
E|-------------------------------------------------------------------|

e|--------------------9-------------------------------------------|
B|------9---9---9---9---12-9---------------------------9---9---9--|
G|-9-11-11b-11b-11b----------11--9----9---------9-11-9-11b-11b-11b|
D|---------------------------------11---11-9-11-------------------|
A|----------------------------------------------------------------|
E|----------------------------------------------------------------|

e|--------------------------------------------------------------------|
B|-9---9---9----12b-12b-12b-12b-12b-12b-12b-12b-12b-12b---------------|
G|-11b-11b-11b--------------------------------------------------------|
D|--------------------------------------------------------------------|
A|--------------------------------------------------------------------|
E|--------------------------------------------------------------------|

2nd Guitar plays the verse over and over again during the solo
------------------------------------------------------------------------------------------------------------

Last Chorus
1st Guitar
e|----------------------------------------------|
B|-12-9-----------------------------------------|
G|------9-11-9----9-11-9----11b-11r-9-11-9----9-|
D|-------------11--------11----------------11---|
A|----------------------------------------------|
E|----------------------------------------------|

2nd Guitar
e|---4---------7----------5-----/-7-----|
B|---5---------7----------5-----/-7-----|
G|---6---------8----------6-----/-8-----|
D|---6---------9----------7-----/-9-----|
A|---4---------9----------7-----/-9-----|
E|-------------7----------5-----/-7-----|
Strum first 3 chords

1st Guitar
e|----------------------------------|
B|-12-9-------------------------10b-|
G|------9-11-9----9-11-9----11b-----|
D|-------------11--------11---------|
A|----------------------------------|
E|----------------------------------|

2nd Guitar
e|---4---------7----------5-----/-7---|
B|---5---------7----------5-----/-7---|
G|---6---------8----------6-----/-8---|
D|---6---------9----------7-----/-9---|
A|---4---------9----------7-----/-9---|
E|-------------7----------5-----/-7---|
Strum first 3 chords

1st Guitar
e|----------------------------------------------|
B|-12-9-----------------------------------------|
G|------9-11-9----9-11-9----11b-11r-9-11-9----9-|
D|-------------11--------11----------------11---|
A|----------------------------------------------|
E|----------------------------------------------|

2nd Guitar
e|---4---------7----------5-----/-7---|
B|---5---------7----------5-----/-7---|
G|---6---------8----------6-----/-8---|
D|---6---------9----------7-----/-9---|
A|---4---------9----------7-----/-9---|
E|-------------7----------5-----/-7---|
Strum first 3 chords

1st Guitar
e|--------------------------------------|
B|-12-9---------------------------------|
G|------9-11-9----9-11-9---------8-9----|
D|-------------11--------11--11---------|
A|--------------------------------------|
E|--------------------------------------|

2nd Guitar
e|---4---------7----------5-----/-7---|
B|---5---------7----------5-----/-7---|
G|---6---------8----------6-----/-8---|
D|---6---------9----------7-----/-9---|
A|---4---------9----------7-----/-9---|
E|-------------7----------5-----/-7---|
Strum first 3 chords





Comments


Popular The Pigeon Detectives tabs & chords
I Found Out 1 Bass Tabs
Everybody Wants Me 2 Chords
I Cant Control Myself 1 Chords
I Found Out Chords
Keep On Your Dress Chords
She Wants Me Chords
Don't Know How To Say Goodbye Tabs
Stop Or Go Tabs
You Don't Need It Tabs
Everybody Wants Me 2 Ukulele


Song lyrics



↑ Back to top | Tablatures and chords are parodies/interpretations of the original songs. You may use it for private study, scholarship, research or language learning purposes only
© 2014 AZChords.com Contact us | Privacy policy | DMCA | Add/correct tabs | Request tabs | Top 50 tabs