» » »

The Pigeon Detectives, Romantic Type Bass tabs (ver.1)

Artists:  A B C D E F G H I J K L M N O P Q R S T U V W X Y Z # 

Romantic Type Bass tabs (ver.1)

The Pigeon Detectives Tabs
 Rating:
4.3/5 (6 votes)
Romantic Type lessons Tabs too difficult? Try these video lessons and learn fast
1
                -------------------------------------------------------------------------------
-------------------------------------------------------------------------------

  
Tuning: EADG


Intro

Start with guitar
G|------------------|
D|------------------|
A|------------------|
E|-0~----2~---------| x2


Verse/Solo

G|------------------|
D|------------------|
A|------------------|
E|-0-(x16)--2-(x16)-| 


Chorus

G|--------------|
D|--------------|
A|--------------|
E|-9--7--5--5-7-| x2


Post Chorus

G|---------------------------|
D|---------------------------|
A|---------------------------|
E|-4~----5~----4~----5--4--2-|


Outro Chorus

Last 2 times through chorus
G|------------------------------------|
D|------------------------------------|
A|------------------------------------|
E|-9-9-9-9--7-7-7-7--5-5-5-5--5-5-7-7-| x2


End on 

G|---|
D|---|
A|---|
E|-9-|

The sequence is:

Intro
Verse x2
Chorus 
Post Chorus
Verse x3
Chorus
Post Chorus
Solo x6
Chorus
Outro Chorus
End


One of my favourite Pigeon Detective songs!


Key:
| \  slide down
| /  slide up
| h  hammer-on
| p  pull-off
| ~  let ring
            
Submit corrections

comments powered by Disqus
↑ Back to top | The Pigeon Detectives Bass for Romantic Type. Lyrics for acoustic guitar and electric guitar. 1 Tablatures and chords are parodies/interpretations of the original songs. You may use it for private study, scholarship, research or language learning purposes only