>
 >
I'm Not Sorry

I'm Not Sorry Guitar Tabs

The Pigeon Detectives - I'm Not Sorry chords, tabs, tablatures, lyrics

Guitar lessons | Add/correct | Request | Top 50 tabs Artists:  A B C D E F G H I J K L M N O P Q R S T U V W X Y Z 0-9

I'm Not Sorry Guitar Tabs – The Pigeon Detectives

CD, Sheet music, Poster

Do you like I'm Not Sorry? Share with your friends now
Bass TabsBass Tabs v2ChordsTabs
-------------------------------------------------------------------------------
                             I'm Not Sorry - Pigeon Detectives
-------------------------------------------------------------------------------

Tuning: Standard


Intro/Verse:

(guitar 1)

e|--------------------------------------------------------|
B|--------------------------------------------------------|
G|--1-1--1-1-1--1-2-2--2-2-2--2-4-4--4-4-4--4-2-2--2-2-2--|
D|--2-2--2-2-2--2-2-2--2-2-2--2-2-2--2-2-2--2-2-2--2-2-2--|
A|--------------------------------------------------------|
E|--------------------------------------------------------|

(guitar 2) 0:12

e|--7-7---7-7---9-9---9-9---11-11---11-11---9-9----|
B|--9-9---9-9---9-9---9-9----9--9----9--9---9-9----|
G|-------------------------------------------------|
D|-------------------------------------------------|
A|-------------------------------------------------|
E|-------------------------------------------------|


Bridge: 0:31, 0:43

(guitar 1)

e|---------------------------|
B|---------------------------|
G|--11-11-11-11-11-11-11-11--|
D|--11-11-11-11-11-11-11-11--|
A|---9--9--9--9--9--9--9--9--|
E|---------------------------|


(guitar 2)

e|---------------------------|
B|--------11----------11-----|
G|-----11----11----11----11--|
D|--11----------11-----------| x2
A|---------------------------| 
E|---------------------------|



Pre-Chorus:

e|---------------------|
B|---------------------|
G|--999999999--13-13---|
D|--999999999---x--x---|
A|--777777777--11-11---|
E|---------------------|

Chorus:

e|---------------------------------------------------|
B|---------------------------------------------------|
G|--11-11-11-11-11---13-13---11-11-11-11-11---13-13--|
D|--11-11-11-11-11----x--x---11-11-11-11-11----x--x--|
A|---9--9--9--9--9---11-11----9--9--9--9--9---13-13--|
E|---------------------------------------------------|


e|----------------------------------------------------|
B|----------------------------------------------------|
G|--14-14-14-14-14-14-14-14--13-13-13-13-13-13-13-13--|
D|---x--x--x--x--x--x--x--x---x--x--x--x--x--x--x--x--| x2
A|--12-12-12-12-12-12-12-12--11-11-11-11-11-11-11-11--|
E|----------------------------------------------------|

(reapeat all)

e|-------|
B|-------|
G|---9---|
D|---9---|
A|---7---|
E|-------|


Solo: 

(2:30)
e|----------------------------------------------------|
B|-----------10-9-10-12---12h14p12-10h12p12-9h10p9----|
G|--9h11p9-----------------------------------------9--|
D|----------------------------------------------------|
A|----------------------------------------------------|
E|----------------------------------------------------|


e|--------------------------------------------------------------------------|
B|--9-8-9-8--11-8-11-8--13-11-13-11--14-13-14-13--16-14-16-14--18-16-18-16--|
G|--------------------------------------------------------------------------|
D|--------------------------------------------------------------------------|
A|--------------------------------------------------------------------------|
E|--------------------------------------------------------------------------|


e|----------------------------------|
B|--20-18-20-18--21-21-21-21-21-21--|
G|----------------------------------|
D|----------------------------------|
A|----------------------------------|
E|----------------------------------|


e|------------------------------|------------------------------|
B|------------------------------|------------------------------|
G|--13-14-13-16-13-14-13-16-13--|--14-16-14-18-14-16-14-18-14--|
D|------------------------------|------------------------------|
A|------------------------------|------------------------------|
E|------------------------------|------------------------------|

e|------------------------------|------------------------------|
B|------------------------------|------------------------------|
G|--16-18-16-20-16-18-16-20-16--|--18-20-18-21-18-20-18-21-18--|
D|------------------------------|------------------------------|
A|------------------------------|------------------------------|
E|------------------------------|------------------------------|


e|------------------------------|------------------------------|
B|------------------------------|------------------------------|
G|--13-14-13-16-13-14-13-16-13--|--14-16-14-18-14-16-14-18-14--|
D|------------------------------|------------------------------|
A|------------------------------|------------------------------|
E|------------------------------|------------------------------|

e|------------------------------|------------------------------|
B|------------------------------|------------------------------|
G|--16-18-16-20-16-18-16-20-16--|--18-20-18-21-18-20-18-21-18\-|
D|------------------------------|------------------------------|
A|------------------------------|------------------------------|
E|------------------------------|------------------------------|


Outro:

e|--------------------------------------------------|
B|--------------------------------------------------|
G|--14-14-14-14--13-13-13-13--11-11-11-11--9-9-9-9--|
D|---x--x--x--x---x--x--x--x---x--x--x--x--x-x-x-x--| x2
A|--12-12-12-12--11-11-11-11---9--9--9--9--7-7-7-7--|
E|--------------------------------------------------|

e|------------------------------------------------------|
B|------------------------------------------------------|
G|--14-14-14-14--16-16-16-16--18-18-18-18--20-20-20-20--|
D|---x--x--x--x---x--x--x--x---x--x--x--x---x--x--x--x--| x2
A|--12-12-12-12--14-14-14-14--16-16-16-16--18-18-18-18--|
E|------------------------------------------------------|

e|--------------------------------------------------|
B|--------------------------------------------------|
G|--14-14-14-14--13-13-13-13--11-11-11-11--9-9-9-9--|
D|---x--x--x--x---x--x--x--x---x--x--x--x--x-x-x-x--| x2
A|--12-12-12-12--11-11-11-11---9--9--9--9--7-7-7-7--|
E|--------------------------------------------------|


e|-----|
B|-----|
G|--9--|
D|--x--| 
A|--7--|
E|-----|


| /  slide up
| \  slide down
| h  hammer-on
| p  pull-off
| ~  vibrato
| +  harmonic
| x  Mute note
===============================================================================





Comments


Popular The Pigeon Detectives tabs & chords
Caght In Your Trap Bass Tabs
Caught In Your Trap Chords
Everybody Wants Me 2 Chords
I Cant Control Myself 1 Chords
I Found Out Chords
Cant Control Myself Tabs
I Found Out 1 Tabs
Im Not Sorry Tabs
Making Up Numbers Intro Tabs
Lost Ukulele


Song lyrics



↑ Back to top | Tablatures and chords are parodies/interpretations of the original songs. You may use it for private study, scholarship, research or language learning purposes only
© 2014 AZChords.com Contact us | Privacy policy | DMCA | Add/correct tabs | Request tabs | Top 50 tabs