» » »

I'm Not Sorry Bass tabs (ver.1)

Artists:  A B C D E F G H I J K L M N O P Q R S T U V W X Y Z # 

I'm Not Sorry Bass tabs (ver.1)

The Pigeon Detectives
Rating:
0/5 (0 votes)

Hard to play? Try these video lessons and learn fast.
                -------------------------------------------------------------------------------
                             I'M NOT SORRY – The Pigeon Detectives
-------------------------------------------------------------------------------


Tuning: E-A-D-G

Please don't be too harsh: this is my first tab, and I'm 12... It's an awesome song, and 
to play. Happy playing!

Start after first bar of guitar.

G|---------------------------------------------------------------------------|
D|22-222-222-222-222-222-222-222-222-222-222-222-222-222-222-222-222-222-222-|
A|---------------------------------------------------------------------------|
E|---------------------------------------------------------------------------|

G|---------------------------------------------------------------------------|
D|222-444444664444446644444466-2464-22-222-222-222-222-222-222-222-4444446644|
A|----------------------------4----------------------------------------------|
E|---------------------------------------------------------------------------|

G|---------------------------------------------------------------------------|
D|44446644444466-2464-2222222222--66--44444444444466--44444444444466--7777777|
A|--------------4------------------------------------------------------------|
E|---------------------------------------------------------------------------|

G|---------------------------------------------------------------------------|
D|7777777777777777777777777--2-------2-------2-------2-------22-222-222-222-2|
A|---------------------------------------------------------------------------|
E|---------------------------------------------------------------------------|

G|---------------------------------------------------------------------------|
D|22-222-222-222--444444664444446644444466-2464-22-222-222-222-222-222-222-22|
A|----------------------------------------4----------------------------------|
E|---------------------------------------------------------------------------|

G|---------------------------------------------------------------------------|
D|2-444444664444446644444466-2464-2222222222--66--22222222222266--22222222222|
A|--------------------------4------------------------------------------------|
E|---------------------------------------------------------------------------|

G|---------------------------------------------------------------------------|
D|266--77777777777777777777777777777777---------------------------------2-2-2|
A|---------------------------------------------------------------------------|
E|---------------------------------------0-------0-------0------0------------|

G|-----12421-----------12421-----------12421-----------12421-----------------|
D|-2-24-----42-2-2-2-24-----42-2-2-2-24-----42-2-2-2-24-------C-H-O-R-U-S-X-3|
A|---------------------------------------------------------------------------|
E|---------------------------------------------------------------------------|

G|---------------------------------------------------------------------------|
D|44444444444466--44444444444466--7------------------------------------------|
A|---------------------------------------------------------------------------|
E|---------------------------------------------------------------------------|


| /  slide up
| \  slide down
| h  hammer-on
| p  pull-off
| ~  vibrato
| +  harmonic
| x  Mute note
===============================================================================
            
Hard to play? Try these video lessons and learn fast. | Correct




comments powered by Disqus
↑ Back to top | Tablatures and chords are parodies/interpretations of the original songs. You may use it for private study, scholarship, research or language learning purposes only