» » »

The Pigeon Detectives, I Found Out Tabs (ver.2)

Artists:  A B C D E F G H I J K L M N O P Q R S T U V W X Y Z # 

I Found Out Tabs (ver.2)

The Pigeon Detectives Tabs
 Rating:
4.4/5 (7 votes)
I Found Out lessons Tabs too difficult? Try these video lessons and learn fast
1
                ============================================================================
                         The Pigeon Detectives
                             I Found Out
Hey the Pigeon detectives rock but they are so understated (cant spell sorry :P im only 
I perfected the solo by combining my own work with 2 other tabbed solos from
freddiejones &
benbroom
thanx alot so i now hope i have the right solo!!
Please rate and comment

cheers rich.

The song order:

Intro
Verse1
Chorus
Verse2                      Tuning standerd.
Chorus
Solo + outro (as underlay)
Verse3 = no guitar
Chorus
Outro


I’m quite sure that there are around 32 fast downstums in the intro although it may be a 
more or less.

 Intro:
e|------------------------------------|
B|------------------------------------|
G|-99999999999999999999999999999999---|
D|-99999999999999999999999999999999---|
A|-77777777777777777777777777777777---|
E|------------------------------------|

Verse:
e|----------------------------------------------|
B|----------------------------------------------|
G|-9--9-9--9-9--9-9--8--6--6-6-6--4--6-6-6--4---|   x 4 for verse 1
D|-9--9-9--9-9--9-9--8--6--6-6-6--4--6-6-6--4---|   x 2 for verse 2
A|-7--7-7--7-7--7-7--6--4--4-4-4--2--4-4-4--2---|
E|----------------------------------------------|

Main riff for the Chorus:
e|----------------------------------------|
B|-------9-12--9---9----------------------|
G|--9-11--------11------------------------| x 8 in the first 2 choruses
D|----------------------------------------|
A|----------------------------------------|
E|----------------------------------------|

Solo:

e|----------------------------------------------------------------|
B|---9-----9------9-----------------------------------------------|
G|-11bu--11bu---11bu---11bd-9-11-9-------------------------9~~~~~~|
D|--------------------------------------11-9-11----------9h11-----|
A|------------------------------------------------9h11------------|
E|----------------------------------------------------------------|


e|------------------------------------------------------|
B|-------------------12bu-12bu-12bu-12bu-12bubd-9h10p9--|
G|---------9----9~~~~---------------------------------11|
D|-9\11/9----11-----------------------------------------|
A|---pm------pm-----------------------------------------|
E|------------------------------------------------------|

Fast Bit:

e|--------------------------------------------------12-9---------|
B|---12bu--12bu--12bu--12bu--12bd--12-9-12-9----9-12-----12-9----|
G|-------------------------------------------11------------------|
D|---------------------------------------------------------------|
A|---------------------------------------------------------------|
E|---------------------------------------------------------------|

e|---------------------------------------------------------------|
B|-12-9----------------------------------------------------------|
G|------11-9-11-9-----------9-11-9-11bu--------------------------|
D|----------------11-9-11-9--------------------------------------|
A|---------------------------------------------------------------|
E|---------------------------------------------------------------|


Outro:
e|----------------------------------------------|
B|----------------------------------------------|
G|-9--9-9--9-9--9-9--8--6--6-6-6--4--6-6-6--4---| x 1 under the solo
D|-9--9-9--9-9--9-9--8--6--6-6-6--4--6-6-6—-4---| x 1 at the end
A|-7--7-7--7-7--7-7--6--4--4-4-4--2--4-4-4--2---|
E|----------------------------------------------|

| / slide up
| \ slide down
| H hammer-on
| P pull-off
| ~ vibrato
| + harmonic
| X Mute note
| Bu bend up
| Bd bend down
============================================================================
            
Submit corrections

comments powered by Disqus
↑ Back to top | The Pigeon Detectives Tabs for I Found Out. Lyrics for acoustic guitar and electric guitar. 1 Tablatures and chords are parodies/interpretations of the original songs. You may use it for private study, scholarship, research or language learning purposes only