» » »

The Pigeon Detectives, I Found Out Tabs (ver.3)

Artists:  A B C D E F G H I J K L M N O P Q R S T U V W X Y Z # 

I Found Out Tabs (ver.3)

The Pigeon Detectives Tabs
 Rating:
4.2/5 (5 votes)
I Found Out lessons Tabs too difficult? Try these video lessons and learn fast
                -------------------------------------------------------------------------------
                             I Found Out - Pigeon Detectives
-------------------------------------------------------------------------------

Tuning: Standard

Structure:

Intro
Verse x4
Chorus x2
Verse x2
Chorus x2
Solo
Verse (no guitar)
Chorus x2
Verse

Intro
e|----------------------------------|
B|----------------------------------|
G|-99999999999999999999999999999999-|
D|-99999999999999999999999999999999-|
A|-77777777777777777777777777777777-|
E|----------------------------------|
(32 downstrokes)

Verse
e|------------------------------|
B|------------------------------|
G|-9-99-99-99-8-6-666-4---666-4-|
D|-9-99-99-99-8-6-666-4---666-4-|
A|-7-77-77-77-6-4-444-2---444-2-|
E|------------------------------|

Chorus
e|------------------|------------------|------------------|------------------|
B|------9-12-9----9-|------9-12-9----9-|------9-12-9----9-|------9-12-9----9-|
G|-9-11--------11---|-9-11--------11---|-9-11--------11---|-9-11--------11---|
D|------------------|------------------|------------------|------------------|
A|------------------|------------------|------------------|------------------|
E|------------------|------------------|------------------|------------------|

Solo
e|---------------------------------------------------------------------------|
B|-9-----9-----9-----9-----9-------------------------------------------------|
G|-11b13-11b13-11b13-11b13---11-9-11-9---------------------9~---------9----9-|
D|-------------------------------------11-9-11--------9-11----11-9-11---11---|
A|-----------------------------------------------9-11------------------------|
E|---------------------------------------------------------------------------|

e|--------------------------------------9~-12p9--------------------------------------------|
B|-12b14-12b14-12b14-12b14r12-9h10p9------------12p9h12p9----------------------------------|
G|-----------------------------------11-------------------11p9h11p9---------9h11(12)====11-|
D|------------------------------------------------------------------11p9h11----------------|
A|-----------------------------------------------------------------------------------------|
E|-----------------------------------------------------------------------------------------|

| /  slide up
| \  slide down
| h  hammer-on
| p  pull-off
| ~  vibrato
| +  harmonic
| x  Mute note
===============================================================================
            
Submit corrections

comments powered by Disqus
↑ Back to top | The Pigeon Detectives Tabs for I Found Out. Lyrics for acoustic guitar and electric guitar. Tablatures and chords are parodies/interpretations of the original songs. You may use it for private study, scholarship, research or language learning purposes only