» » »

Theme Songs, Twinkle Twinkle Little Star Bass tabs (ver.1)

Artists:  A B C D E F G H I J K L M N O P Q R S T U V W X Y Z # 

Twinkle Twinkle Little Star Bass tabs (ver.1)

Theme Songs Tabs
 Rating:
4/5 (4 votes)
Twinkle Twinkle Little Star lessons Tabs too difficult? Try these video lessons and learn fast
1
                
g------------------------------
d------------------------------
a-----2-2-3-3-2----------------
e-0-0-----------5-5-3-3-1-1-0--

g--------------------------------
d--------------------------------
a-2-2------------2-2-------------
e-----5-5-3-3-1------5-5-3-3-1---

g-------------------------------
d-------------------------------
a-----2-2-3-3-2-----------------
e-0-0------------5-5-3-3-1-1-0--

Submission by: bassman666

G:----------------------------- 
D:----------------------------- 
A:-----2-2-4-4-2-0-0----------- 
E:-0-0---------------4-4-2-2-0-
            
Submit corrections

comments powered by Disqus
↑ Back to top | Theme Songs Bass for Twinkle Twinkle Little Star. Lyrics for acoustic guitar and electric guitar. 1 Tablatures and chords are parodies/interpretations of the original songs. You may use it for private study, scholarship, research or language learning purposes only