» » »

Top Gun Theme Song Tabs (ver.1)

Artists:  A B C D E F G H I J K L M N O P Q R S T U V W X Y Z # 

Top Gun Theme Song Tabs (ver.1)

Theme Songs
Rating:
0/5 (0 votes)

Hard to play? Try these video lessons and learn fast.
                e---------------------------------------------
B----8-8-6-5-6h5---------5---5-6-5---3/5-3----
G--5-------------7-7-5-7---7-------5----------
D---------------------------------------------
A---------------------------------------------
E---------------------------------------------

e---------------------------------------------
B----8-8-6-5-6h5---------5---5-6-5---8~~~~----
G--5-------------7-7-5-7---7-------5----------
D---------------------------------------------
A---------------------------------------------
E---------------------------------------------
            
Hard to play? Try these video lessons and learn fast. | Correct




comments powered by Disqus
↑ Back to top | Tablatures and chords are parodies/interpretations of the original songs. You may use it for private study, scholarship, research or language learning purposes only