>
 >
This Old Man

This Old Man Bass Tabs

Theme Songs - This Old Man chords, tabs, tablatures, lyrics

Guitar lessons | Add/correct | Request | Top 50 tabs Artists:  A B C D E F G H I J K L M N O P Q R S T U V W X Y Z 0-9

This Old Man Bass Tabs – Theme Songs

CD, Sheet music, Poster

Do you like This Old Man? Share with your friends now
Bass TabsBass Tabs v2

this i tabbed from trumpet, i know its 99.8 percent..
yes 99.8 percent right.. because there are a few
notes im not sure about.. but its as close as i can 
get.

this can also be played 2 ways

...... Means to play that part in a faster tempo.

g------------------------------
d------------------------------
a-2---2--2---2--3-2------------
e---3------3--------5-3-1-3-5--

g----------------------------------------
d----------------------------------------
a-----2----------------2--2--------------
e-3-5---0-0-0--0-1-3-5------1-1-5-3-1-0--
               .........

or

g------------------------------
d-2---2--2---2--3-2------------
a---3------3--------5-3-1-3-5--
e------------------------------

g----------------------------------------
d-----2----------------2--2--------------
a-3-5---0-0-0--0-1-3-5------1-1-5-3-1-0--
e----------------------------------------
               .........





Comments


Popular Theme Songs tabs & chords
A,B,Cs 1 Bass Tabs
Buffy Bass Tabs
Imperial March Bass Tabs
Jepardy Bass Tabs
Legend Of Zelda Theme Bass Tabs
Super Mario 2 Bass Tabs
Surfer Theme Bass Tabs
Titanic Bass Tabs
Tom Green Theme Bass Tabs
Samurai Jack Tabs


Song lyrics



↑ Back to top | Tablatures and chords are parodies/interpretations of the original songs. You may use it for private study, scholarship, research or language learning purposes only
© 2014 AZChords.com Contact us | Privacy policy | DMCA | Add/correct tabs | Request tabs | Top 50 tabs