» » »

The Simpsons Theme Song Bass tabs (ver.1)

Artists:  A B C D E F G H I J K L M N O P Q R S T U V W X Y Z # 

The Simpsons Theme Song Bass tabs (ver.1)

Theme Songs
Rating:
0/5 (0 votes)
Tabs too difficult? Try these video lessons and learn fast.
                G--------4-2---------------------|
D-0---4-6---4-0------------------|
A---------------2---------34445--|
E----------------3334-3334-------|

G--------4-2---------------------|
D-0---4-6---4-0------------------|
A---------------2---------34445--|
E----------------3334-3334-------|

G--------4-2---------------------|
D-0---4-6---4-0------------------|
A---------------2---------34445--|
E----------------3334-3334-------|

G--------4-2---------------------|
D-0---4-6---4-0------------------|
A---------------2---------34445--|
E----------------3334-3334-------|
            
Tabs too difficult? Try these video lessons and learn fast.


comments powered by Disqus
↑ Back to top | Tablatures and chords are parodies/interpretations of the original songs. You may use it for private study, scholarship, research or language learning purposes only