» » »

The Pink Panther Bass tabs (ver.1)

Artists:  A B C D E F G H I J K L M N O P Q R S T U V W X Y Z # 

The Pink Panther Bass tabs (ver.1)

Theme Songs
Rating:
0/5 (0 votes)

Hard to play? Try these video lessons and learn fast.
                song - pink panther



G:------------------
D:-6-7-8-9------------          x2
A:-4-5-6-7------------            
E:------------7~--0~---

G:----------------------5-4---------------------
D:----------4-5-----4-5-------5-9-8~-----7-5----------
A:-4-5-6-7------6-7---------7----------------7-5-7--------
E:-----------------------------------------

G:------------------------5-4------9-7----
D:----------4-5------4-5---------5------------
A:-4-5-6-7------6-7-----------7--------
E:------------------------------------

G:----------9-7--------------------------------------
D:---------------9-7-5-----8p7-8p7-8p7-8-5------------
A:-4-5-6-7--------------7------------------7-5-7------
E:------------------------------------------------7--0~

~ = ring
p = pull-off

if you like what you see, rate it,
feel free to leave any comments if you see any mistakes
            
Hard to play? Try these video lessons and learn fast. | Correct




comments powered by Disqus
↑ Back to top | Tablatures and chords are parodies/interpretations of the original songs. You may use it for private study, scholarship, research or language learning purposes only